» » »

The Raconteurs, Attention Bass tabs (ver.1)

Artists:  A B C D E F G H I J K L M N O P Q R S T U V W X Y Z # 

Attention Bass tabs (ver.1)

The Raconteurs Tabs
 Rating:
4/5 (4 votes)
Attention lessons Tabs too difficult? Try these video lessons and learn fast
                

Tuning: Standard

The main riff of this bassline is so envigorating and energetic I had to tab it, despite 
a guitar player

INTRO
G|-------------------|-----------------|
D|-----------------2-|-----------------|
A|-4-4p2-------2-4---|-4-4p2---2-4-----| x4
E|-------4p2-4-------|-------4-----2-0-|

VERSE
G|---------------|---------------|
D|---------------|---------------|
A|-2-2----4-4----|---------------| x8
E|---------------|-2-2----0-0----|

CHORUS
G|-----------------|-----------------|
D|---------------2-|-----------------|
A|-4-4p2-----2-4---|-4-4p2---2-4-----| x4
E|-------2-4-------|-------4-----2-0-|

VERSE x8
CHORUS x4

BRIDGE
(comes in on 4th bar of bridge and last note is added on 6th, 8th, 10th, 11th and 12th bars)
G|-----------------|----|
D|-----------------|----|
A|-7-6-5---7-6-5-4-|-\7-| x9
E|-----------------|----|

VERSE x1
CHORUS x10
VERSE x9

G|------------------------|
D|------------------------|
A|-2-2---------------4--4-|
E|------------------------|


| \  slide down
| p  pull-off
            
Submit corrections

comments powered by Disqus
↑ Back to top | The Raconteurs Bass for Attention. Lyrics for acoustic guitar and electric guitar. Tablatures and chords are parodies/interpretations of the original songs. You may use it for private study, scholarship, research or language learning purposes only