» » »

The Raconteurs, Attention Tabs (ver.1)

Artists:  A B C D E F G H I J K L M N O P Q R S T U V W X Y Z # 

Attention Tabs (ver.1)

The Raconteurs Tabs
Rating:
0/5 (0 votes)
Attention lessons Tabs too difficult? Try these video lessons and learn fast
                The Raconteurs - Attention

Bass Intro

G|---------------------------------------------|
D|------------------2--------------------------| (X4)
A|-4-4p2-------2-4---------4-4p2-----2-4-------|
E|--------2-4---------------------4------2-0---|

Guitar
e|--------------|
B|--------------|
G|-9--9----9--6-|
D|-9--9----9--6-|
A|-7--7----7--4-|
E|--------------|

Verse
e|---------------------------|
B|---------------------------|
G|-4-4----6-6----------------|
D|-4-4----6-6----4-4----2-2--|
A|-2-2----4-4----4-4----2-2--|
E|---------------2-2----0-0--|

Hey
Now that you have my attenton
What are you gona do?
You might have good intentions
But they're not comin through
You're very pleased with yourself I see
It's like a walk in the park
You aren't enlighted by anybody else cause
You can see in the dark

Chorus
e|---------------------------------------------|
B|---------------------------------------------|
G|---------------------------------------------|
D|------------------2--------------------------| 
A|-4-4p2-------2-4---------4-4p2-----2-4-------|
E|--------2-4---------------------4------2-0---|

Got a lock, got a key
Got some kinda vise-like grip on me
On a leash, by the reigns
Got a look that puts me in chains

e|--------------|
B|--------------|
G|-9--9----9--6-|
D|-9--9----9--6-|
A|-7--7----7--4-|
E|--------------|


Verse
e|---------------------------|
B|---------------------------|
G|-4-4----6-6----------------|
D|-4-4----6-6----4-4----2-2--|
A|-2-2----4-4----4-4----2-2--|
E|---------------2-2----0-0--|

I tried a subtle suggestion
A more direct approach
I can't make a conection
Your beyond reproach
No need for petty excuses
No need for thumbing around
I dont know what the use is
Or what your ?mowing? down


Chorus
e|---------------------------------------------|
B|---------------------------------------------|
G|---------------------------------------------|
D|------------------2--------------------------| 
A|-4-4p2-------2-4---------4-4p2-----2-4-------|
E|--------2-4---------------------4------2-0---|

Got a lock, got a key
Got some kinda vise-like grip on me
On a leash, by the reigns
Got a look that puts me in chains

e|--------------|
B|--------------|
G|-9--9----9--6-|
D|-9--9----9--6-|
A|-7--7----7--4-|
E|--------------|

Bridge
e|--------------|
B|--------------|
G|-9--9----9--6-| (X4)
D|-9--9----9--6-|
A|-7--7----7--4-|
E|--------------|

e|-----------------|
B|-----------------|
G|-9--9----9-8-7-6-| (X8)
D|-9--9----9-8-7-6-|
A|-7--7----7-6-5-4-|
E|-----------------|

Now that you have my attention...

e|---------------------------------------------|
B|---------------------------------------------|
G|---------------------------------------------| (X4)
D|------------------2--------------------------| 
A|-4-4p2-------2-4---------4-4p2-----2-4-------|
E|--------2-4---------------------4------2-0---|
pm****************** **************************

e|---------------------------------------------|
B|---------------------------------------------|
G|---------------------------------------------| (X6)
D|------------------2--------------------------| 
A|-4-4p2-------2-4---------4-4p2-----2-4-------|
E|--------2-4---------------------4------2-0---|

(Got some kinda vise like grip on me)

e|---------------------------|
B|---------------------------|
G|-4-4----6-6----------------| (X9)
D|-4-4----6-6----4-4----2-2--|
A|-2-2----4-4----4-4----2-2--|
E|---------------2-2----0-0--|

(Got a lock)
(Got a Key)
 
e|----------|
B|----------|
G|--6---6---|
D|--6---6---|
A|--4---4---|
E|----------|
            
Submit corrections

comments powered by Disqus
↑ Back to top | The Raconteurs Tabs for Attention. Lyrics for acoustic guitar and electric guitar. Tablatures and chords are parodies/interpretations of the original songs. You may use it for private study, scholarship, research or language learning purposes only