» » »

This Is An Emergency Tabs (ver.1)

Artists:  A B C D E F G H I J K L M N O P Q R S T U V W X Y Z # 

This Is An Emergency Tabs (ver.1)

The Pigeon Detectives
Rating:
5/5 (9 votes)

Hard to play? Try these video lessons and learn fast.
                The New Single From The Pigeon Detectives, "This Is An Emergency"

I'm Loving The New Sound Can't Wait For Album


Intro / Verse 1

e|---------------------------------------------|      
B|---------------------------------------------|     
G|---------------------------------------------|       
D|--7----------10---------12----------10-------|x 3
A|--x---x16----x--x16-----x----x28----x---x4---|      
E|--5----------8----------10----------8--------|

Pre Chorus

F, Am, C, Dm


e|-13-13----12-12----12-12----13-13--|      
B|-13-13-x2-13-13-x2-13-13-x2-15-15--|     
G|-14-14----14-14----12-12----14-14--| x2      
D|-----------------------------------|  
A|-----------------------------------|      
E|-----------------------------------|

Chorus

e|------------------|      
B|------------------|     
G|--7-7-7/9-9-9/12--|       
D|--x-x-x/x-x-x/x---|x 8  
A|--5-5-5/7-7-7/10--|      
E|------------------|

Verse 2

e|-----------------------------------------------|      
B|-----------------------------------------------|     
G|-----------------------------------------------|       
D|--7----------10----------------7-7-5-5-7-7-----|x 2  
A|--x--x16-----x-----x16-----5-5--------------x4-|      
E|--5----------8---------------------------------|

Pre-Chorus

Chorus

Bridge

e|--------------------|      
B|--------------------|     
G|--------------------|       
D|--------------------|  
A|--12*--15*--17*--17*|      
E|--------------------|

Pre-Chorus

Chorus x2

Outro

e|--5--5------------------------|         
B|--5--5------------------------|         
G|--6--6------------------------|        
D|--7--7------------------------|x 3      
A|--7--7------------------------|        
E|--5--5---8-8-8-8-10-10-10-10--|        

End on A (Let It Ring)

Peace x
            
Hard to play? Try these video lessons and learn fast. | Correct




comments powered by Disqus
↑ Back to top | Tablatures and chords are parodies/interpretations of the original songs. You may use it for private study, scholarship, research or language learning purposes only