» » »

The Pigeon Detectives, This Is An Emergency Bass tabs (ver.1)

Artists:  A B C D E F G H I J K L M N O P Q R S T U V W X Y Z # 

This Is An Emergency Bass tabs (ver.1)

The Pigeon Detectives Tabs
 Rating:
4.5/5 (8 votes)
This Is An Emergency lessons Tabs too difficult? Try these video lessons and learn fast
1
                
intro - 0:15s

G|-----------------------------------------------------------------------|
D|-----------------------------------------------------------------------|X2
A|-----------------------------------------------------------------------|
E|-5555/7777/8888/10101010-(X2)--81010101010101010-(X3)-81010101010888\--|

verse - 0:43s

G|-----------------------------------------------------------------------|
D|-----------------------------------------------------------------------|
A|-----------------------------------------------------------------------|
E|-11111111/55555555/88888888/1010101010101010---------------------------|

G|-----------------------------------------------------------------------|
D|-----------------------------------------------------------------------|
A|-----------------------------------------------------------------------|
E|-11111111/55555555/88888888/1010101010\--------------------------------|

chorus - 0:57s

G|-----------------------------------------------------------------------|
D|-----------------------------------------------------------------------|
A|-----------------------------------------------------------------------|
E|-11111111/55555555/88888888/1010101010101010-(x2)----------------------|

verse 2 - 1:10s

part A
G|-----------------------------------------------------------------------|
D|-----------------------------------------------------------------------|X2
A|-----------------------------------------------------------------------|
E|-5555/7777/8888/10101010-(X2)--81010101010101010-(X3)-81010101010888\--|

part B
G|-----------------------------------------------------------------------|
D|-----------------------------------------------------------------------|
A|-----------------------------------------------------------------------|
E|-11111111/55555555/88888888/1010101010101010---------------------------|

G|-----------------------------------------------------------------------|
D|-----------------------------------------------------------------------|
A|-----------------------------------------------------------------------|
E|-11111111/55555555/88888888/1010101010\--------------------------------|

chorus - 1:54s

G|-----------------------------------------------------------------------|
D|-----------------------------------------------------------------------|
A|-----------------------------------------------------------------------|
E|-11111111/55555555/88888888/1010101010101010-(x2)----------------------|

bridge - 2:08s

G|---------------------------------------55----------------55--------------|
D|---------------------------775577---77--77---775577---77--77-------------|
A|-------------------------55-------55-------55-------55-------------------|
E|-5~-5~-5~-5~-8~-8~-8~-8~-------------------------------------------------|

verse - 2:21s

G|-----------------------------------------------------------------------|
D|-----------------------------------------------------------------------|
A|-----------------------------------------------------------------------|
E|-11111111/55555555/88888888/1010101010101010---------------------------|

G|-----------------------------------------------------------------------|
D|-----------------------------------------------------------------------|
A|-----------------------------------------------------------------------|
E|-11111111/55555555/88888888/1010101010\--------------------------------|

chorus - 2:35s

G|-----------------------------------------------------------------------|
D|-----------------------------------------------------------------------|x4
A|-----------------------------------------------------------------------|
E|-11111111/55555555/88888888/1010101010101010---------------------------|

ending - 3:01s

G|-----------------------------------------------------------------------|
D|-----------------------------------------------------------------------|
A|-----------------------------------------------------------------------|
E|-55--------55--------555--------5\-------------------------------------|

key:
/ = slide up
\ = slide down
~ = let ring
            
Submit corrections

comments powered by Disqus
↑ Back to top | The Pigeon Detectives Bass for This Is An Emergency. Lyrics for acoustic guitar and electric guitar. 1 Tablatures and chords are parodies/interpretations of the original songs. You may use it for private study, scholarship, research or language learning purposes only