» » »

This Is An Emergency Tabs (ver.3)

Artists:  A B C D E F G H I J K L M N O P Q R S T U V W X Y Z # 

This Is An Emergency Tabs (ver.3)

The Pigeon Detectives
Rating:
4/5 (1 vote)

Tabs too difficult? Try these video lessons and learn fast.
                -------------------------------------------------------------------------------
                           pigeon detectives - this is an emergency
-------------------------------------------------------------------------------

Tuning: standard

guitar 1

intro/verse

e|---------------------------------------------------------------------------|
B|---------------------------------------------------------------------------|
G|---------------------------------------------------------------------------|
D|---------------------------------------------------------------------------|
A|---------------------------------------------------------------------------|
E|-55555555555555-88888888888888-101010101010101010101010101010101010101010--|

e|---------------------------------------------------------------------------|
B|---------------------------------------------------------------------------|
G|---------------------------------------------------------------------------|
D|---------------------------------------------------------------------------| x3
A|---------------------------------------------------------------------------|
E|-/8888---------------------------------------------------------------------|  

chorus part 1

e|-8---12--8---10------------------------------------------------------------|
B|-10--13--8---10------------------------------------------------------------|
G|-10--14--9---10------------------------------------------------------------| 
D|-10--14--10--12------------------------------------------------------------| x2
A|-8---12--10--12------------------------------------------------------------|
E|---------8---10------------------------------------------------------------|

chorus part 2

e|-10/13---------------------------------------------------------------------|
B|-10/13---------------------------------------------------------------------|
G|-10/14---------------------------------------------------------------------|
D|-12/15---------------------------------------------------------------------| x 6
A|-12/15---------------------------------------------------------------------|
E|-10/13---------------------------------------------------------------------|

guitar 2

guitar 2 comes in on first chorus and then the next verse.

chorus part 1

e|----------------------------------1313-1313--------------------------------|
B|-1313-1313--1313-1313--1313-1313--1515-1515--------------------------------|
G|-1414-1414--1414-1414--1212-1212--1414-1414--------------------------------| x2
D|-1515-1515--1414-1414--1414-1414-------------------------------------------|
A|---------------------------------------------------------------------------|
E|---------------------------------------------------------------------------|

chorus part 2

e|---------------------------------------------------------------------------|
B|---------------------------------------------------------------------------|
G|---------------------------------------------------------------------------|
D|---------------------------------------------------------------------------| x6
A|-555/888/1010--------------------------------------------------------------|
E|---------------------------------------------------------------------------|

verse 2

e|---------------------------------------------------------------------------|
B|---------------------------------------------------------------------------|
G|---------------------------------------------------------------------------|
D|---------------99-77-99----99-77-99----------------------------------------| x 2
A|-12~---15~---77----------77------------------------------------------------|
E|---------------------------------------------------------------------------|

outro is guitar 2 playing chorus part 2 3 times.

| /  slide up
| \  slide down
| h  hammer-on
| p  pull-off
| ~  vibrato
| +  harmonic
| x  Mute note
===============================================================================
            
Tabs too difficult? Try these video lessons and learn fast.




comments powered by Disqus
↑ Back to top | Tablatures and chords are parodies/interpretations of the original songs. You may use it for private study, scholarship, research or language learning purposes only