>
 >
I Found Out

I Found Out Guitar Tabs

The Pigeon Detectives - I Found Out chords, tabs, tablatures, lyrics

Guitar lessons | Add/correct | Request | Top 50 tabs Artists:  A B C D E F G H I J K L M N O P Q R S T U V W X Y Z 0-9

I Found Out Guitar Tabs – The Pigeon Detectives

CD, Sheet music, Poster

Do you like I Found Out? Share with your friends now
Bass TabsBass Tabs v2ChordsChords v2TabsTabs v2Tabs v3Tabs v4Ukulele
------------------------------------------------------------------------
------------------------------------------------------------------------------

Tuning:EADGBe

Im pretty sure there's 32 fast downstrums for the intro(four bars of eighth note strums)
 Intro:   E5
e|---------------------------------------------------------------------------|
B|---------------------------------------------------------------------------|
G|-99999999999999999999999999999999------------------------------------------|
D|-99999999999999999999999999999999------------------------------------------|
A|-77777777777777777777777777777777------------------------------------------|
E|---------------------------------------------------------------------------|
Verse E5                D#5 C#5              (Slide back to 7th fret for repeat)
 I,Found Out,Your going out with him, (going out with,yes your goin out with)
e|------------------------------------------------------------------------|
B|-----------------------------------------------This is played-----------|
G|-9--9-9--9-9--9-9--8--6--6-6-6--6--6-6-6--6----4 times for the ---------|
D|-9--9-9--9-9--9-9--8--6--6-6-6--6--6-6-6--6----first verse and----------|
A|-7--7-7--7-7--7-7--6--4--4-4-4--4--4-4-4--4----twice for the second-----|
E|------------------------------------------------------------------------|
  This is the main riff for the Chorus:
e|----------------------------------------|
B|-------9-12--9---9----------------------|
G|--9-11--------11------------------------| this is played 8 times in the
D|----------------------------------------| in the first and second choruses
A|----------------------------------------|
E|----------------------------------------|

e|---------------------------------------------------------------------------|
B|---------------------------------------------------------------------------|
G|---11-bu---11-bu---11-bu---11-9--------------------9--------9---9----------|
D|--------------------------------11-9-11-------9-11-----9-11---11-----------|
A|------------------------------------------9-11-------11--------------------|
E|---------------------------------------------------------------------------|
                       The fast bit:        (sumthing like that!)
e|----------------------------------9----------------------------------------|
B|---12bu12bu12bu12bu12-9----9--------12-9---9-------------------------------|
G|------------------------11---11----------11-11-9----9---------11~~~~~~~~---|
D|-------------------------------------------------11--11-9---9--------------|
A|----------------------------------------------------------11---------------|
E|---------------------------------------------------------------------------|
Outro
e|------------------------------------------------------------------------|
B|-----------------------------------------------This is played-----------|
G|-9--9-9--9-9--9-9--8--6--6-6-6--6--6-6-6--6----once at the end ---------|
D|-9--9-9--9-9--9-9--8--6--6-6-6--6--6-6-6--6----and under the solo-------|
A|-7--7-7--7-7--7-7--6--4--4-4-4--4--4-4-4--4-----------------------------|
E|------------------------------------------------------------------------|
"Going out with!Yes your goin out with!!!"
Song Structure:
Intro
Verse1
Chorus
Verse2
Chorus
Solo
Verse3 (no guitar)
Chorus
Outro


A quality song by a quality new band,hope it helps the pigeon detectives fans out 
be grateful for any feedback, Enjoy!!!

| /  slide up
| \  slide down
| h  hammer-on
| p  pull-off
| ~  vibrato
| +  harmonic
| x  Mute note
  bu bend up
   r return (bend)
===============================================================================





Comments


Popular The Pigeon Detectives tabs & chords
Take Her Back Bass Tabs
Dont Know How To Say Goodbye Chords
Draw The Curtian Chords
Keep On Your Dress Chords
Don't You Wanna Find Out Tabs
I Found Out 3 Tabs
This Is An Emergency Tabs
Wait For Me 4 Tabs
Dont Know How To Say Goodbye Ukulele
Romantic Type Ukulele


Song lyrics



↑ Back to top | Tablatures and chords are parodies/interpretations of the original songs. You may use it for private study, scholarship, research or language learning purposes only
© 2014 AZChords.com Contact us | Privacy policy | DMCA | Add/correct tabs | Request tabs | Top 50 tabs