» » »

When The Saints Go Marching In Bass tabs (ver.1)

Artists:  A B C D E F G H I J K L M N O P Q R S T U V W X Y Z # 

When The Saints Go Marching In Bass tabs (ver.1)

Theme Songs
Rating:
0/5 (0 votes)

Hard to play? Try these video lessons and learn fast.
                
i re-did this so it's correct now..
the other one i half-assed.

~ Let Ring

g------------------------------------------------------
d---1-2-4----1-2-4----1-2-4-1---1----1-1------1-4--4-2-
a-2--------2--------2---------2---4-------2--2---------
e------------------------------------------------------

g--------------|
d---2-4-1------|
a-1-------2-4--|
e--------------|

g------------------------------------------------------
d---1-2-4----1-2-4----1-2-4-1---1----1-1------1-4--4-2-
a-2--------2--------2---------2---4-------2--2---------
e------------------------------------------------------

g--------------|-----
d---2-4-1------|-----
a-1-------2-4--|-2~--
e--------------|-----
            
Hard to play? Try these video lessons and learn fast. | Correct




comments powered by Disqus
↑ Back to top | Tablatures and chords are parodies/interpretations of the original songs. You may use it for private study, scholarship, research or language learning purposes only