» » »

When The Saints Go Marching In Bass tabs (ver.3)

Artists:  A B C D E F G H I J K L M N O P Q R S T U V W X Y Z # 

When The Saints Go Marching In Bass tabs (ver.3)

Theme Songs
Rating:
0/5 (0 votes)

Hard to play? Try these video lessons and learn fast.
                Got bored and came up with this, in A. Pretty simple, just follow the rhythm of the song

G-----------------------------------------------------------------------
D-----------------------------------------------------------------------
A-----4-5-7----4-5-7---4-5-7-4---4---4-4-----4-7-7-5--4-5-7-4-----------
E---5--------5-------5---------5---7-----7-5------------------5-7-5-----

If you want a bit more of a challenge, you may here when most marching bands play it they play the first part twice, one plays and the oter echoes. It's a bit more fun to play it like that

G------------------------------------------------------------------------------------
D------------------------------------------------------------------------------------
A-----4-5-7--4-5-7---4-5-7---4-5-7---4-5-7-4---4---4-4-----4-7-7-5--4-5-7-4----------
E---5-------5------5-------5-------5---------5---7-----7-5------------------5-7-5----

Enjoy
            
Hard to play? Try these video lessons and learn fast. | Correct




comments powered by Disqus
↑ Back to top | Tablatures and chords are parodies/interpretations of the original songs. You may use it for private study, scholarship, research or language learning purposes only