» » »

Take Me Out To The Ball Game Bass tabs (ver.2)

Artists:  A B C D E F G H I J K L M N O P Q R S T U V W X Y Z # 

Take Me Out To The Ball Game Bass tabs (ver.2)

Theme Songs
Rating:
0/5 (0 votes)

Hard to play? Try these video lessons and learn fast.
                "(1)
*Take me out to the ballgame*

G-------------------------------------------------
D---3-0------------3-0----------------------------
A-------3-0-3----------3-0-3--4-5-4-5-0-1-3-5-1---
E-1-----------3--1------------------------------3-

D--------------------------------------------------
G-0-0-0-2-3-5-2-0---------3-0--------------------0-
A-----------------3-1---------3-0-3--------1-2-3---
E---------------------3-1-----------3--1-3---------

D---------------------------
G-0-2-3-3-3-2-0-------0-2-3-
A---------------3-2-4-------
E---------------------------

THATS IT!!!!
VERY EASY
"            
Hard to play? Try these video lessons and learn fast. | Correct




comments powered by Disqus
↑ Back to top | Tablatures and chords are parodies/interpretations of the original songs. You may use it for private study, scholarship, research or language learning purposes only