» » »

Take Me Out To The Ball Game Bass tabs (ver.1)

Artists:  A B C D E F G H I J K L M N O P Q R S T U V W X Y Z # 

Take Me Out To The Ball Game Bass tabs (ver.1)

Theme Songs
Rating:
0/5 (0 votes)

Tabs too difficult? Try these video lessons and learn fast.
                **Take me out to the Ball Game**
This is my first tab and its is very close if not perfect.
ENJOY!!!!

G-----------------------------
D---3-0-------------3-0-------
A-------3-0-3-----------3-0-3-
E-1-----------3--1------------

G--------------------------------------------
D----------------------0-0-0-2-3-5-2-0-------
A-4-5-4-5-0-1-3-5-1--------------------3-1---
E-------------------3----------------------3-

G------------------------------------------------------------
D---3-0-----------------------0--0-2-3-3-3-2-0---------0-2-3-
A-------3-0-3---------0-1-2-3-------------------3-2-4--------
E-1-----------3--1-3-----------------------------------------

THATS IT!!!
VERY EASY
            
Tabs too difficult? Try these video lessons and learn fast.


comments powered by Disqus
↑ Back to top | Tablatures and chords are parodies/interpretations of the original songs. You may use it for private study, scholarship, research or language learning purposes only