» » »

Theme Songs, Super Mario Bass tabs (ver.1)

Artists:  A B C D E F G H I J K L M N O P Q R S T U V W X Y Z # 

Super Mario Bass tabs (ver.1)

Theme Songs Tabs
 Rating:
4/5 (4 votes)
Super Mario lessons Tabs too difficult? Try these video lessons and learn fast
                
This is only the bass track of the song, treble will be found in the guitar tabs
Listen to a recording of the actual theme song or the real thing, and keep practicing; I shouldn't have to tell you that this is %100 correct

Great fun to play, and sounds great even if you're not right on and sloppy a little. Have fun!
                                                       
G||---------------0----0----|--0--------------0-------|
D||--0-0--0--0-0------------|------2-------3-----4-3--|
A||-------------------------|----------3--------------|
E||-------------------------|-------------------------|


                                                           
--------9-10--7-9---------------|--0--------------0-------|
----10-------------10--7-9------|------2-------3-----4-3--|
--7------------------------10---|----------3--------------|
--------------------------------|-------------------------|


                                                           
--------9-10--7-9---------------|----------5------5-5-----|
----10-------------10--7-9------|------5------3--------3--|
--7------------------------10---|--3----------------------|
--------------------------------|-------------------------|


                                                                               
------------5----------0--|----------5------5-5-----|-----1---3---5-----------|
----------5---------------|------5------3--------3--|-----------------5-5-----|
------7--------8--8-8-----|--3----------------------|--3-------------------3--|
--8-----------------------|-------------------------|-------------------------|


                                                                               
----------5------5-5-----|------------5-------------|----------5------5-5-----|
------5------3--------3--|------2---5------------5--|------5------3--------3--|
--3----------------------|--3------------8--8-8-----|--3----------------------|
-------------------------|--------------------------|-------------------------|


                                                                            
-----1---3---5-----------|----------1--0----------|----------1--0----------|
-----------------5-5-----|------1-----------------|------1-----------------|
--3-------------------3--|-----------------3------|-----------------3------|
-------------------------|--4------------------3--|--4------------------3--|


                                                                             
----------1--0----------|---------------0----0----|--0--------------0-------|
------1-----------------|--0-0--0--0-0------------|------2-------3-----4-3--|
-----------------3------|-------------------------|----------3--------------|
--4------------------3--|-------------------------|-------------------------|


                                                          
----5--9-10--7-9---------------|--0--------------0-------|
------------------10--7-9------|------2-------3-----4-3--|
--7-----------------------10---|----------3--------------|
-------------------------------|-------------------------|


                                                           
----5--9-10--7-9----------0---|--------0--5--------5-5----|
--2---------------10--7-9-----|--------------3--3------3--|
------------------------------|------9--------------------|
------------------------------|--8------------------------|


                                                        
--------0--4--0--0--5-5-0--|--------0--5--------5-5----|
--0---3--------------------|------4-------3--3------3--|
---------------------------|--3------------------------|
---------------------------|---------------------------|


                                                        
--0-0--0-0-2--4-5----------|--------0--5--------5-5----|
-------------------5-------|------4-------3--3------3--|
----------------------3----|--3------------------------|
---------------------------|---------------------------|


                                                        
--------0--4--0--0--5-5-0--|--------0--5--------5-5----|
--0---3--------------------|------4-------3--3------3--|
---------------------------|--3------------------------|
---------------------------|---------------------------|


                                                                              
--0-0--0-0-2--4-5----------|----------1--0----------|----------1--0----------|
-------------------5-------|------1-----------------|------1-----------------|
----------------------3----|-----------------3------|-----------------3------|
---------------------------|--4------------------3--|--4------------------3--|


                                                                                
----------1--0----------|---------------12----0----|--------0--5--------5-5----|
------1-----------------|--0-0--0--0-0-------------|--------------3--3------3--|
-----------------3------|--------------------------|------9--------------------|
--4------------------3--|--------------------------|--8------------------------|


                                                        
--------0--4--0--0--5-5-0--|--------0--5--------5-5----|
--0---3--------------------|------4-------3--3------3--|
---------------------------|--3------------------------|
---------------------------|---------------------------|


                                 
--0-0--0-0-2--4-5----------|---||
-------------------5-------|---||
----------------------3----|---||
---------------------------|---||
            
Submit corrections

comments powered by Disqus
↑ Back to top | Theme Songs Bass for Super Mario. Lyrics for acoustic guitar and electric guitar. Tablatures and chords are parodies/interpretations of the original songs. You may use it for private study, scholarship, research or language learning purposes only