» » »

Super Mario Bass tabs (ver.3)

Artists:  A B C D E F G H I J K L M N O P Q R S T U V W X Y Z # 

Super Mario Bass tabs (ver.3)

Theme Songs
Rating:
0/5 (0 votes)

Hard to play? Try these video lessons and learn fast.
                --------------------------------
--- Super Mario Kart - Title ---
--------------------------------

38 Degrees and i´m melting down.......

It´s too hot to stay outside, so i wasted my time on another stupid tab :)

-------------
--- Intro ---
-------------

G--|----------------------------101012-|
D--|---3-5---233-0-3-5--779-1012-------|
A--|--3--------------------------------|
E--|-3---------------------------------|



-----------------
--- MAIN PART ---
-----------------

*= mute

G--|----------------------------------->
D--|----------------12---9-10-9-7-9-10->
A--|-10*-10-12-10-9-------------------->
E--|----------------------------------->
    \______________|2X|______________/






G-->--------------------------------------------------------------------------|
D-->-8*-8*-7*-7-9/12-10--------------7-5---10*-10-12/15-13--------------------|
A-->--------------------10---7-8-7-8-----------------------13---10-10-9-12-10-|
E-->--------------------------------------------------------------------------|


It was pretty hard to tab these lines. 

It´s very playable but my sweat was running down the frets and my fingers slipped away too many times. ***!!!


This tab is 100% correct.
If you cannot get the timing, just write me an e-mail.
I´ll send you the wav-file of this song !!!! (I´m a nice guy, right?)



Other tabs:

Super Mario Brothers - Secret Room
Super Mario Brothers - World 1-1
The Legend of Zelda - The Hyrule Song
            
Hard to play? Try these video lessons and learn fast. | Correct




comments powered by Disqus
↑ Back to top | Tablatures and chords are parodies/interpretations of the original songs. You may use it for private study, scholarship, research or language learning purposes only