» » »

Theme Songs, Star Spangled Banner Bass tabs (ver.3)

Artists:  A B C D E F G H I J K L M N O P Q R S T U V W X Y Z # 

Star Spangled Banner Bass tabs (ver.3)

Theme Songs Tabs
 Rating:
4/5 (4 votes)
Star Spangled Banner lessons Tabs too difficult? Try these video lessons and learn fast
                G-------------5----9-7-5----------
D--5-2---2-5---------------2--4-5-
A------3--------------------------
E---------------------------------


G-------9-7-5-4---2-4-55----------
D-5-5---------------------5-2-----
A------------------------------3--
E---------------------------------   
Repeat these two sections once


G-9-9-9--10--12-12---10-9--7-9-10-10-
D------------------------------------


G-10--9--7-5-4-2-4-5----------------
D---------------------2-4-5---------


G-----5-5-5-4--2-2-2---7-10-9-7-5-5-4---
D-5-5---------------------------------5-


G-5-7-9-10--12----5-7-9-10-7-5-
D------------------------------

GOOOOOO AMERICA!!
            
Submit corrections

comments powered by Disqus
↑ Back to top | Theme Songs Bass for Star Spangled Banner. Lyrics for acoustic guitar and electric guitar. Tablatures and chords are parodies/interpretations of the original songs. You may use it for private study, scholarship, research or language learning purposes only