» » »

Theme Songs, Star Spangled Banner Bass tabs (ver.1)

Artists:  A B C D E F G H I J K L M N O P Q R S T U V W X Y Z # 

Star Spangled Banner Bass tabs (ver.1)

Theme Songs Tabs
Rating:
0/5 (0 votes)
Star Spangled Banner lessons Tabs too difficult? Try these video lessons and learn fast
                Theme Songs - Star Spangled Banner

Standard Tuning

G|--------------------9-----11/13--11--9-------------    >
D|--9--------------9------------------------------9--    >
A|-----11------11-------------------------11--13-----    >
E|---------12----------------------------------------    >
                                                         >     [2x]
--------11/13--11--9--8----6--8--9--9-----------|        >
--9--9---------------------------------9--6-----|        >
---------------------------------------------7--|        >
------------------------------------------------|        >

G|--13--13--13--14--16--16----14--13--11--13--14--14-- 
D|---------------------------------------------------- 
A|---------------------------------------------------- 
E|---------------------------------------------------- 

--14--13-----------------------------------------| 
----------16--14--13----11--13--14---------------| 
-------------------------------------11--13--14--| 
-------------------------------------------------| 

G|----------------------------------------11--13--14--13--11------------------- 
D|------14--14--15--14--13--11--11--11--------------------------14--13/14--13-- 
A|--14------------------------------------------------------------------------- 
E|----------------------------------------------------------------------------- 

--------9--11--13--14--14/16----9--11--13--14--11--9--| 
--9--9------------------------------------------------| 
------------------------------------------------------| 
------------------------------------------------------|
            

comments powered by Disqus
↑ Back to top | Theme Songs Bass for Star Spangled Banner. Lyrics for acoustic guitar and electric guitar. Tablatures and chords are parodies/interpretations of the original songs. You may use it for private study, scholarship, research or language learning purposes only