» » »

Theme Songs, Requiem For A Dream Bass tabs (ver.2)

Artists:  A B C D E F G H I J K L M N O P Q R S T U V W X Y Z # 

Requiem For A Dream Bass tabs (ver.2)

Theme Songs Tabs
Rating:
0/5 (0 votes)
Requiem For A Dream lessons Tabs too difficult? Try these video lessons and learn fast
                Requiem For A Dream Main Theme


G--12---15-17-------
D-------------------
A--10---13-15-------------
E--3----6--8----3---
                ^let ring

G-----14-15-----14-15------14-15----17-15-14-15----
D---17--------17---------17------17----------------
A--------------------------------------------------
E---3-------3---------3--------------------------
    ^       ^         ^

G-12--15-17--------
D------------------
A-10--13-15--------
E-3---6--8---------

G-15-----15--15-----15---15-----15--15--15--15--15--
D----17----17--17-----17---17-----17--17--17--17--17
A---------------------------------------------------
E-3----------------------6----------8---------------

G-15p14---15p14-15p14---15p14-15p14---15p14-17p15-17p15-17p15-17p15---
D---------------------------------------------------------------------
A---------------------------------------------------------------------
E-3---------------------------6-------------8-------------------------

G-15-15-15-14-14-12-12--15-15-15-14-14-12-12--15-15-15-14-14-12-12--12-12-12/14-14-14/15-15-15-12
D----------------------------------------------------------------------------------
A-----------------------------------------------------------------------------------
E-3-------------------------------------------------6---------------------8---------------------3
            

comments powered by Disqus
↑ Back to top | Theme Songs Bass for Requiem For A Dream. Lyrics for acoustic guitar and electric guitar. Tablatures and chords are parodies/interpretations of the original songs. You may use it for private study, scholarship, research or language learning purposes only