» » »

Theme Songs, Requiem For A Dream Bass tabs (ver.1)

Artists:  A B C D E F G H I J K L M N O P Q R S T U V W X Y Z # 

Requiem For A Dream Bass tabs (ver.1)

Theme Songs Tabs
 Rating:
4/5 (4 votes)
Requiem For A Dream lessons Tabs too difficult? Try these video lessons and learn fast
1
                I just want to note that this song is played with classical instruments but it's fun, anyway. Also, these are just the riffs. I forget the order....

G--------------
D-12----10--8--
A--------------
E--------------


G-10-9-----------
D--------12------
A-------------12-
E----------------


G-12--10--9-------
D--------------12-
A-----------------
E-----------------


G-10-10-7---10-7-10-7---10-7-10-7---10-7-10-7-10-7-10-7-10-7-
D------------------------------------------------------------
A------------------------------------------------------------
E------------------------------------------------------------


G-10-9---10-9-10-9---10-9-10-9---10-9-10-9-10-9-10-9-10-9-
D---------------------------------------------------------
A---------------------------------------------------------
E---------------------------------------------------------


G-1010-99-7-10101010-99-7-10101010-99-7--777-9999-101010-
D--------------------------------------------------------
A--------------------------------------------------------
E--------------------------------------------------------


G-7-------9---10------7-------10---9---
D--------------------------------------
A--------------------------------------
E--------------------------------------


Throw it all together and mix it up and you'll have it. Sorry if I messed it up. Enjoi!
            
Submit corrections

comments powered by Disqus
↑ Back to top | Theme Songs Bass for Requiem For A Dream. Lyrics for acoustic guitar and electric guitar. 1 Tablatures and chords are parodies/interpretations of the original songs. You may use it for private study, scholarship, research or language learning purposes only