» » »

Theme Songs, Popeye Bass tabs (ver.1)

Artists:  A B C D E F G H I J K L M N O P Q R S T U V W X Y Z # 

Popeye Bass tabs (ver.1)

Theme Songs Tabs
 Rating:
4/5 (4 votes)
Popeye lessons Tabs too difficult? Try these video lessons and learn fast
1
                real easy song. great for warm-ups.

riff 1
G-7-6-7------------77--|-9-7-9----9-7-6-7---6-----
D----------7-5-4-7-----|------------------9---7---
A-------55-------------|-------77-----------------
E----------------------|--------------------------

riff 2
G-4-6-7-6-4---4------------------------------------------------
D-----------7---7-5-4-5-4-----------------------4-5-7-4--------
A-------------------------7-5-7-5-4-------4-5-7---------55-----
E-----------------------------------7-5-7----------------------

riff 3
G--------7--4----|--------9-----9--6------
D-7-5-4-7-7---55-|-9-7-6-9-9-6-9-9---77---
A----------------|------------------------
E----------------|------------------------

ORDER:
riff 1
riff 2
riff 3
riff 2

let A-5- ring
            
Submit corrections

comments powered by Disqus
↑ Back to top | Theme Songs Bass for Popeye. Lyrics for acoustic guitar and electric guitar. 1 Tablatures and chords are parodies/interpretations of the original songs. You may use it for private study, scholarship, research or language learning purposes only