>
 >
Popeye

Popeye Bass Tabs

Theme Songs - Popeye chords, tabs, tablatures, lyrics

Guitar lessons | Add/correct | Request | Top 50 tabs Artists:  A B C D E F G H I J K L M N O P Q R S T U V W X Y Z 0-9

Popeye Bass Tabs – Theme Songs

CD, Sheet music, Poster

Do you like Popeye? Share with your friends now
Bass TabsBass Tabs v2Bass Tabs v3
G---------------------5---5-8-5----
D-5-888-6-5-8---8---5--------8--
A------------------------------------
E------------------------------------

G-----5----58-7-5----5----------------5-7-8--
D8---6--------------8---5-0-0-8-8-8----------
A---------------------------------------------------
E---------------------------------------------------





Comments


Popular Theme Songs tabs & chords
Charge Bass Tabs
Dawson's Creek Theme Bass Tabs
Nokia Ring Tune Bass Tabs
Ode To Joy Bass Tabs
Original Mission Impossible Theme Bass Tabs
Requiem For A Dream Main Theme Bass Tabs
Star Wars 1 Bass Tabs
The Pink Panther 1 Bass Tabs
Meow Mix Tabs
Nightmare Before Christmas Tabs


Song lyrics



↑ Back to top | Tablatures and chords are parodies/interpretations of the original songs. You may use it for private study, scholarship, research or language learning purposes only
© 2014 AZChords.com Contact us | Privacy policy | DMCA | Add/correct tabs | Request tabs | Top 50 tabs