» » »

Mission Impossible Tabs (ver.2)

Artists:  A B C D E F G H I J K L M N O P Q R S T U V W X Y Z # 

Mission Impossible Tabs (ver.2)

Theme Songs
Rating:
0/5 (0 votes)

Hard to play? Try these video lessons and learn fast.
                

(opening riff)
E-------------------
B-------------------
G-------------------
D-------------------
A------1-3----------
E--3-3-----3-3-1-2-3

E-15-12------15-12-------15-12----
B-------12------------------------
G--------------------15---------14
D---------------------------------
A---------------------------------
E---------------------------------

E------------------------------------------------------------
B------------------------------------------------------------
G-----------3/5-----------------3/5-----------------
D-----------1/3-----------------1/3-----------------
A-3/5—5-5-------5-5—3-4-5--5-5-------5-5—3-4-5--
E-1/3—3-3-------3-3—1-2-3--3-3-------3-3—1-2-3--
            
Hard to play? Try these video lessons and learn fast. | Correct




comments powered by Disqus
↑ Back to top | Tablatures and chords are parodies/interpretations of the original songs. You may use it for private study, scholarship, research or language learning purposes only