>
 >
Mission Impossible 2

Mission Impossible 2 Guitar Tabs

Theme Songs - Mission Impossible 2 chords, tabs, tablatures, lyrics

Guitar lessons | Add/correct | Request | Top 50 tabs Artists:  A B C D E F G H I J K L M N O P Q R S T U V W X Y Z 0-9

Mission Impossible 2 Guitar Tabs – Theme Songs

CD, Sheet music, Poster

Do you like Mission Impossible 2? Share with your friends now
TabsTabs v2Tabs v3


(opening riff)
E-------------------
B-------------------
G-------------------
D-------------------
A------1-3----------
E--3-3-----3-3-1-2-3

E-15-12------15-12-------15-12----
B-------12------------------------
G--------------------15---------14
D---------------------------------
A---------------------------------
E---------------------------------

E------------------------------------------------------------
B------------------------------------------------------------
G-----------3/5-----------------3/5-----------------
D-----------1/3-----------------1/3-----------------
A-3/55-5-------5-53-4-5--5-5-------5-53-4-5--
E-1/33-3-------3-31-2-3--3-3-------3-31-2-3--





Comments


Popular Theme Songs tabs & chords
007 Bass Tabs
Are You Sleeping 1 Bass Tabs
Flintstones Theme Bass Tabs
Shrek Bass Tabs
Star Wars Bass Tabs
Star Wars Imperial March 1 Bass Tabs
The Killing Game Show Bass Tabs
X - Files Bass Tabs
Darth Vader Theme Tabs
Futurama Theme 1 Tabs


Song lyrics



↑ Back to top | Tablatures and chords are parodies/interpretations of the original songs. You may use it for private study, scholarship, research or language learning purposes only
© 2014 AZChords.com Contact us | Privacy policy | DMCA | Add/correct tabs | Request tabs | Top 50 tabs