» » »

Mission Impossible Tabs (ver.3)

Artists:  A B C D E F G H I J K L M N O P Q R S T U V W X Y Z # 

Mission Impossible Tabs (ver.3)

Theme Songs
Rating:
0/5 (0 votes)

Hard to play? Try these video lessons and learn fast.
                e--------------------------------------------]
b--------------------------------------------]
g--------------------------------------------]
d--4-4-4---2-4---4-4-4-----------------------]
a--4-4-4---0-2---4-4-4---2-3-----------------]
e--2-2-2---------2-2-2---0-1-----------------]
   . . .   . .   . . .   . .
e--------------------------------------------]
b--17p14-----17p14-----17p14-----------------]
g-------17~--------16~-------15~-----16p14---]
d--------------------------------------------]
a--------------------------------------------]
e--------------------------------------------]

e--------------------------------------------]
b--------------------------------------------]
g--------------------------------------------]
d--4-4-4---2-4---4-4-4-----------------------]
a--4-4-4---0-2---4-4-4---2-3-----------------]
e--2-2-2---------2-2-2---0-1-----------------]
   . . .   . .   . . .   . .

e---------------------------------------------------------]
b--------------17~-------------16~------------15~---------]
g--------14--------------14--------------14--------16p14--]
d--16-16----16-----16-16----16-----16-16----16------------]
a---------------------------------------------------------]
e---------------------------------------------------------]
            
Hard to play? Try these video lessons and learn fast. | Correct




comments powered by Disqus
↑ Back to top | Tablatures and chords are parodies/interpretations of the original songs. You may use it for private study, scholarship, research or language learning purposes only