» » »

Theme Songs, Mario Brothers Tabs (ver.2)

Artists:  A B C D E F G H I J K L M N O P Q R S T U V W X Y Z # 

Mario Brothers Tabs (ver.2)

Theme Songs Tabs
 Rating:
4/5 (4 votes)
Mario Brothers lessons Tabs too difficult? Try these video lessons and learn fast
                


|-----------------------------------------------------------------------------------
|-----------------------------------------------------------------------------------
|-----------------------------------------------------------------------------------
|----------------------------------------------------3-3-0-0-1-1--3-3-0-0-1-1-------
|---------------------------3-3-0-0-1-1--3-3-0-0-1-1--------------------------------
|--3-3-0-0-1-1--3-3-0-0-1-1---------------------------------------------------------

|-----------------------------------------------------------------------------------
|-----------------------------------------------------------------------------------
|-----------------------------------------------------------------------------------
|----------3-2-2-1------------------------------------------------------------------
|------3-2---------2-1--------------------------------------------------------------
|--3-2------------------------------------------------------------------------------
            
Submit corrections

comments powered by Disqus
↑ Back to top | Theme Songs Tabs for Mario Brothers. Lyrics for acoustic guitar and electric guitar. Tablatures and chords are parodies/interpretations of the original songs. You may use it for private study, scholarship, research or language learning purposes only