» » »

Mario Brothers Tabs (ver.1)

Artists:  A B C D E F G H I J K L M N O P Q R S T U V W X Y Z # 

Mario Brothers Tabs (ver.1)

Theme Songs
Rating:
0/5 (0 votes)

Tabs too difficult? Try these video lessons and learn fast.
                --Mario Brothers Theme--

  there ae other versions out there but this ones seems to sound  more accurate to me. try it and tell me what you think.


e|---------------------------------------|-----------------------------
B|---------------------------------------|-----------------------------
G|---------------------------------------|-----------------------------
D|--2-2-2---2-4--------------------------|--------3-----3--------------
A|--------3------------3------0-2-1-0----|---2--3-----2---2-0--2-------
E|--------------3--------3-0-------------|-3----------------------3----
					   play this twice
     As far as i got.



  here's the second level too. not complete but it'll do.
 
e|---------------------------------------------------------------------
B|---------------------------------------------------------------------
G|---------------------------------------------------------------------
D|---------------------------------------------------------------------
A|----------------3-3--0-0--1-1-----------------3-3--0-0--1-1----------
E|-3-3--0-0--1-1-----------------3-3--0-0--1-1-------------------------
									
e|---------------------------------------------------------------------
B|---------------------------------------------------------------------
G|---------------------------------------------------------------------
D|-------------3-2--2-2-1----------------------------------------------
A|--------3-2--------------2-1-----------------------------------------
E|---3-2---------------------------------------------------------------

If anyone can figure out the rest to either one or has any corrections, 
i'll modify, if anything.
            
Tabs too difficult? Try these video lessons and learn fast.




comments powered by Disqus
↑ Back to top | Tablatures and chords are parodies/interpretations of the original songs. You may use it for private study, scholarship, research or language learning purposes only