» » »

Theme Songs, King Of The Hill Tabs (ver.1)

Artists:  A B C D E F G H I J K L M N O P Q R S T U V W X Y Z # 

King Of The Hill Tabs (ver.1)

Theme Songs Tabs
 Rating:
4/5 (4 votes)
King Of The Hill lessons Tabs too difficult? Try these video lessons and learn fast
                

  Tuning: standard


  p= Pull Off



------0--0----------------------------
------2--2----------------------------
------2--2--------1-------------------
------2--2--------2-------------------
---0--------------2-------------------
---------------0----------------------



--------------------------------------------
--------------------------------------------
--------------------------------------------
--------------------------------------------
----------------------------------------2-4-
---0--0-0-0--0-0-4--0-0-0--0-0-5--5-5-5-----



--------------------------------------------------
--------------------------------------------------
--------------------------------------------------
--------------------------------------------------
--------------------------------------------------
---0--0-0-0--0-0-4--0-0-0--0-0-5-5--4-4--2-2--4-2-


--------------------------------------------
--------------------------------------------
--------------------------------------------
--------------------------------------------
----------------------------------------2-4-
---0--0-0-0--0-0-4--0-0-0--0-0-5--5-5-5-----



----------------------------------------------------------
----------------------------------------------------------
-----------------------------------4-4--------------------
-----------------------------------2-2--------------------
--7-7--4-4--2-2--0-0--------------------------------------
----------------------4-4-5p4-2-0-------------------------


-6-6-6-6--------------------------------------------------------------
-4-4-4-4-6-6-6-6------------------------------------------------------
---------4-4-4-4---5--5-5-5--5-5-5--5-5-5--5-7-7--5-5--4-4--5p4-2-----


--------------------------------------------
--------------------------------------------
--------------------------------------------
--------------------------------------------
----------------------------------------2-4-
---0--0-0-0--0-0-4--0-0-0--0-0-5--5-5-5-----



----------------------------------------------------------
----------------------------------------------------------
-----------------------------------4-4--------------------
-----------------------------------2-2--------------------
--7-7--4-4--2-2--0-0--------------------------------------
----------------------4-4-5p4-2-0-------------------------

Have fun.
            
Submit corrections

comments powered by Disqus
↑ Back to top | Theme Songs Tabs for King Of The Hill. Lyrics for acoustic guitar and electric guitar. Tablatures and chords are parodies/interpretations of the original songs. You may use it for private study, scholarship, research or language learning purposes only