» » »

Theme Songs, King Of The Hill Tabs (ver.2)

Artists:  A B C D E F G H I J K L M N O P Q R S T U V W X Y Z # 

King Of The Hill Tabs (ver.2)

Theme Songs Tabs
Rating:
0/5 (0 votes)
King Of The Hill lessons Tabs too difficult? Try these video lessons and learn fast
                I ALWAYS PLAYED FOR THE OTHER STUDENTS AT SCHOOL, SO DECIDE TO JUST SHOE THE WORLD HOW TO PLAY THE SONG.


E|---------------------------------
B|---------------------------------                                                  G|----2-2--------------1-----------
D|----2-2--------------2-----------                                                A|--0------------------2-----------
E|------------------0--------------

E|----------------------------------------------------------------------------------
B|----------------------------------------------------------------------------------
G|----------------------------------------------------------------------------------
D|----------------------------------------------------------------------------------
A|------------------------0--0-000--4-2-------------------------0--0-000------------
E|--0--0-000--4--0--0-000----------------0--0-000--4--0--0-000------------4-2--4--2-

E|----------------------------------------------------------------------------------
B|----------------------------------------------------------------------------------
G|----------------------------------------------------------------------------------
D|---------------------------------------2-2----------------------------------------
A|------------------------0--0-000--4-2------4-4--2-2--0-0------0-------------------
E|--0--0-000--4--0--0-000-----------------------------------4-4----2-0--------------

E|----------------------------------------------------------------------------------
B|----------------------------------------------------------------------------------
G|--6--6--6--6----------------------------------9--9-999--7-6-5-4-------------------
D|--6--6--6--6--6--6--6--6--7--7-777--7--7-777--9--9-999--7-6-5-4-------------------
A|--4--4--4--4--6--6--6--6--7--7-777--7--7-777--7--7-777--5-4-3-2-------------------
E|--------------4--4--4--4--5--5-555--5--5-555--------------------------------------

E|----------------------------------------------------------------------------------
B|----------------------------------------------------------------------------------
G|----------------------------------------------------------------------------------
D|---------------------------------------2-2----------------------------2-2---------
A|------------------------0--0-000--4-2------4-4--2-2--0-0------0-------2-2---------
E|--0--0-000--4--0--0-000-----------------------------------4-4----2-0--0-0---------

  THAT SHOULD SOUND JUST LIKE THE INTRO TO THE SHOW, GOOD LUCK

   -T.M.S
            
Submit corrections

comments powered by Disqus
↑ Back to top | Theme Songs Tabs for King Of The Hill. Lyrics for acoustic guitar and electric guitar. Tablatures and chords are parodies/interpretations of the original songs. You may use it for private study, scholarship, research or language learning purposes only