» » »

Futurama Tabs (ver.2)

Artists:  A B C D E F G H I J K L M N O P Q R S T U V W X Y Z # 

Futurama Tabs (ver.2)

Theme Songs
Rating:
0/5 (0 votes)

Hard to play? Try these video lessons and learn fast.
                (Theme)
Easiest Song In The World

E]---------7-7----------5-5----------------------------------------------------------
B]--7-7----------5-5-----------------------------------------------------------------
G]-----------------------------------------------------------------------------------
D]-----------------------------------------------------------------------------------
A]-----------------------------------------------------------------------------------
E]-----------------------------------------------------------------------------------

Sometimes you go

E]--------7-6---------5-5-4----------------------------------------------------------
B]--7-7---------5-5------------------------------------------------------------------
G]-----------------------------------------------------------------------------------
D]-----------------------------------------------------------------------------------
A]-----------------------------------------------------------------------------------
E]-----------------------------------------------------------------------------------
            
Hard to play? Try these video lessons and learn fast. | Correct




comments powered by Disqus
↑ Back to top | Tablatures and chords are parodies/interpretations of the original songs. You may use it for private study, scholarship, research or language learning purposes only