» » »

Futurama Tabs (ver.1)

Artists:  A B C D E F G H I J K L M N O P Q R S T U V W X Y Z # 

Futurama Tabs (ver.1)

Theme Songs
Rating:
0/5 (0 votes)

Hard to play? Try these video lessons and learn fast.
                (Theme)
here's the theme to the Futurama show...

E|---------------------------------------|
B|---------------------------------------|
G|-----2-2---------------2-2-------------|
D|-2-2-----0-0-2-2---2-2-----0-0-5-5-4-2-|
A|---------------------------------------|
E|---------------------------------------|

E|---------------------------------------|
B|------------------------0-0------------|
G|-2-1----------------2-1----------------|
D|-----0--0-4-2-2---2---------5-5-4-4-2--|
A|---------------------------------------|
E|---------------------------------------|


there. enjoy the 31st century!
            
Hard to play? Try these video lessons and learn fast. | Correct




comments powered by Disqus
↑ Back to top | Tablatures and chords are parodies/interpretations of the original songs. You may use it for private study, scholarship, research or language learning purposes only