» » »

The Last Goodnight, Pictures Of You Tabs (ver.3)

Artists:  A B C D E F G H I J K L M N O P Q R S T U V W X Y Z # 

Pictures Of You Tabs (ver.3)

The Last Goodnight Tabs
 Rating:
4.3/5 (6 votes)
Pictures Of You lessons Tabs too difficult? Try these video lessons and learn fast
1
                Intro and Verses

e-------------------5---------------------|
B---------------------7-------------------|
G---6--------6----------6------7-----7----|
D---7--------7-----------------7-----7----| x 3
A-5--------5-----------------7-----7------|
E-----------------------------------------|

Chorus

e-----------------------------------/7-7-7-7-7-7-7-7--3-3-3-3-3-3-3-3--|
B-----------------------------------/7-7-7-7-7-7-7-7--3-3-3-3-3-3-3-3--|
G-7-7-7-7-7-7-7-7--6-6-6-6-6-6-6-6--/7-7-7-7-7-7-7-7--4-4-4-4-4-4-4-4--| x2
D-7-7-7-7-7-7-7-7--7-7-7-7-7-7-7-7--/9-9-9-9-9-9-9-9--5-5-5-5-5-5-5-5--|
A-5-5-5-5-5-5-5-5--7-7-7-7-7-7-7-7--/9-9-9-9-9-9-9-9--5-5-5-5-5-5-5-5--|
E------------------5-5-5-5-5-5-5-5--/7-7-7-7-7-7-7-7--3-3-3-3-3-3-3-3--|

DRUM SOLO

Verse #2

e-------------------5---------------------|
B---------------------7-------------------|
G---6--------6----------6------7-----7----|
D---7--------7-----------------7-----7----| x 3
A-5--------5-----------------7-----7------|
E-----------------------------------------|

Chorus

e-----------------------------------/7-7-7-7-7-7-7-7--3-3-3-3-3-3-3-3--|
B-----------------------------------/7-7-7-7-7-7-7-7--3-3-3-3-3-3-3-3--|
G-7-7-7-7-7-7-7-7--6-6-6-6-6-6-6-6--/7-7-7-7-7-7-7-7--4-4-4-4-4-4-4-4--| x2
D-7-7-7-7-7-7-7-7--7-7-7-7-7-7-7-7--/9-9-9-9-9-9-9-9--5-5-5-5-5-5-5-5--|
A-5-5-5-5-5-5-5-5--7-7-7-7-7-7-7-7--/9-9-9-9-9-9-9-9--5-5-5-5-5-5-5-5--|
E------------------5-5-5-5-5-5-5-5--/7-7-7-7-7-7-7-7--3-3-3-3-3-3-3-3--|

Bridge

e-----------------------------------------------------------------|
B-----------------------------------------------------------------|
G---------------------------------6-6-6-6-6-6-6-6-4-4-4-4-4-4-4-4-| x2
D-2-2-2-2-2-2-2-2-9-9-9-9-9-9-9-9-7-7-7-7-7-7-7-7-5-5-5-5-5-5-5-5-|
A-2-2-2-2-2-2-2-2-9-9-9-9-9-9-9-9-7-7-7-7-7-7-7-7-5-5-5-5-5-5-5-5-|
E-0-0-0-0-0-0-0-0-7-7-7-7-7-7-7-7-5-5-5-5-5-5-5-5-3-3-3-3-3-3-3-3-|

Verse #3

e-------------------5---------------------|
B---------------------7-------------------|
G---6--------6----------6------7-----7----|
D---7--------7-----------------7-----7----| x 2
A-5--------5-----------------7-----7------|
E-----------------------------------------|

Chorus and Outro

e-----------------------------------/7-7-7-7-7-7-7-7--3-3-3-3-3-3-3-3--|
B-----------------------------------/7-7-7-7-7-7-7-7--3-3-3-3-3-3-3-3--|
G-7-7-7-7-7-7-7-7--6-6-6-6-6-6-6-6--/7-7-7-7-7-7-7-7--4-4-4-4-4-4-4-4--| x6
D-7-7-7-7-7-7-7-7--7-7-7-7-7-7-7-7--/9-9-9-9-9-9-9-9--5-5-5-5-5-5-5-5--|
A-5-5-5-5-5-5-5-5--7-7-7-7-7-7-7-7--/9-9-9-9-9-9-9-9--5-5-5-5-5-5-5-5--|
E------------------5-5-5-5-5-5-5-5--/7-7-7-7-7-7-7-7--3-3-3-3-3-3-3-3--|

End With

e---|
B---|
G-7-|
D-7-|
A-5-|
E---|
            
Submit corrections

comments powered by Disqus
↑ Back to top | The Last Goodnight Tabs for Pictures Of You. Lyrics for acoustic guitar and electric guitar. 1 Tablatures and chords are parodies/interpretations of the original songs. You may use it for private study, scholarship, research or language learning purposes only