» » »

Pictures Of You Tabs (ver.1)

Artists:  A B C D E F G H I J K L M N O P Q R S T U V W X Y Z # 

Pictures Of You Tabs (ver.1)

The Last Goodnight
Rating:
5/5 (6 votes)

Hard to play? Try these video lessons and learn fast.
                i was complaining about how bad the other tab was, and i didnt really want to be one of 
people who complains about how bad a tab is and then not put up one that they think is better


intro/verse
Piano part  (let it ring)
[-------------------5---------------------]
[----2--------2-------7---------3------3--]
[----2--------2---------6-------2------2--]
[-0---------0-----------------------------] x 3
[----------------------------2------------]
[-----------------------------------3-----]

i didnt include every note of the piano because its pointless to try to play all the 
3 hands

Chorus

[-----------------------------------/7-7-7-7-7-7-7-7--3-3-3-3-3-3-3-3--]
[-7-7-7-7-7-7-7-7-------------------/7-7-7-7-7-7-7-7--3-3-3-3-3-3-3-3--]
[-7-7-7-7-7-7-7-7--6-6-6-6-6-6-6-6--/7-7-7-7-7-7-7-7--4-4-4-4-4-4-4-4--] x2
[-7-7-7-7-7-7-7-7--7-7-7-7-7-7-7-7--/9-9-9-9-9-9-9-9--5-5-5-5-5-5-5-5--]
[-5-5-5-5-5-5-5-5--7-7-7-7-7-7-7-7--/9-9-9-9-9-9-9-9--5-5-5-5-5-5-5-5--]
[------------------5-5-5-5-5-5-5-5--/7-7-7-7-7-7-7-7--3-3-3-3-3-3-3-3--]

just drums for a few seconds

[-------------------5---------------------]
[----2--------2-------7---------3------3--]
[----2--------2---------6-------2------2--]
[-0---------0-----------------------------] x 3
[----------------------------2------------]
[-----------------------------------3-----]


Chorus

[-----------------------------------/7-7-7-7-7-7-7-7--3-3-3-3-3-3-3-3--]
[-7-7-7-7-7-7-7-7-------------------/7-7-7-7-7-7-7-7--3-3-3-3-3-3-3-3--]
[-7-7-7-7-7-7-7-7--6-6-6-6-6-6-6-6--/7-7-7-7-7-7-7-7--4-4-4-4-4-4-4-4--] x2
[-7-7-7-7-7-7-7-7--7-7-7-7-7-7-7-7--/9-9-9-9-9-9-9-9--5-5-5-5-5-5-5-5--]
[-5-5-5-5-5-5-5-5--7-7-7-7-7-7-7-7--/9-9-9-9-9-9-9-9--5-5-5-5-5-5-5-5--]
[------------------5-5-5-5-5-5-5-5--/7-7-7-7-7-7-7-7--3-3-3-3-3-3-3-3--]


Bridge
[-----------------7-7-7-7-5-5-5-5-----------------]
[-----------------7-7-7-7-5-5-5-5-----------------]
[-0-0-0-0-0-0-----7-7-7-7-6-6-6-6-4-4-4-4-4-4-4-4-] x2
[-2-2-2-2-2-2-4-4-9-9-9-9-7-7-7-7-5-5-5-5-5-5-5-5-]
[-2-2-2-2-2-2-4-4-9-9-9-9-7-7-7-7-5-5-5-5-5-5-5-5-]
[-0-0-0-0-0-0-2-2-7-7-7-7-5-5-5-5-3-3-3-3-3-3-3-3-]
verse
[-------------------5---------------------]
[----2--------2-------7---------3------3--]
[----2--------2---------6-------2------2--]
[-0---------0-----------------------------] x 2
[----------------------------2------------]
[-----------------------------------3-----]


Chorus

[-----------------------------------/7-7-7-7-7-7-7-7--3-3-3-3-3-3-3-3--]
[-7-7-7-7-7-7-7-7-------------------/7-7-7-7-7-7-7-7--3-3-3-3-3-3-3-3--]
[-7-7-7-7-7-7-7-7--6-6-6-6-6-6-6-6--/7-7-7-7-7-7-7-7--4-4-4-4-4-4-4-4--]
[-7-7-7-7-7-7-7-7--7-7-7-7-7-7-7-7--/9-9-9-9-9-9-9-9--5-5-5-5-5-5-5-5--]
[-5-5-5-5-5-5-5-5--7-7-7-7-7-7-7-7--/9-9-9-9-9-9-9-9--5-5-5-5-5-5-5-5--]
[------------------5-5-5-5-5-5-5-5--/7-7-7-7-7-7-7-7--3-3-3-3-3-3-3-3--]

...until the end of the song (x6 maybe?)

i know its not perfect, especially the bridge, that parts real sh*tty, but its decent 
to play along with the song
            
Hard to play? Try these video lessons and learn fast. | Correct




comments powered by Disqus
↑ Back to top | Tablatures and chords are parodies/interpretations of the original songs. You may use it for private study, scholarship, research or language learning purposes only