» » »

The Last Goodnight, Pictures Of You Bass tabs (ver.1)

Artists:  A B C D E F G H I J K L M N O P Q R S T U V W X Y Z # 

Pictures Of You Bass tabs (ver.1)

The Last Goodnight Tabs
 Rating:
3.4/5 (5 votes)
Pictures Of You lessons Tabs too difficult? Try these video lessons and learn fast
                but it will get you by. have fun!
Steve!!


Intro: with drums(im not sure if bass is actually here but you can do it anyways.

G---------------------------------------------------------------|
D---------------------------------------------------------------|
A---------------------------------------------------------------|
D-12-12--12-12--9-9--5-5--12-12--12-12--9-9--5-5----------------|

G---------------------------------------------------------------|
D---------------------------------------------------------------|
A---------------------------------------------------------------|
D-12-12--12-12--9-9--5-5--12-12--12-12--9-9--5~-----------------|

Chorus:

G---------------------------------------------------------------|
D---------------------------------------------------------------|
A---------------------------------------------------------------|
D-12121212121212-14-7777-12-7-12-14-99999999-55555555-----------|

G---------------------------------------------------------------|
D---------------------------------------------------------------|
A------------7-9-12------12-9-12-14-----------------------------|
D-1212121212--------7777------------99999999-55555555-----------|

Verse:
G---------------------------------------------------------------|
D---------------------------------------------------------------|
A--------------------------------14-----------------------------|
D-121212121212121212121212-14-16----99999999-5555554------------|

G---------------------------------------------------------------|
D---------------------------------------------------------------|
A-------------------------------------14------------------------|
D-1212121212121212121212121212-14-16-----99999999-5~------------|

Chorus:

G---------------------------------------------------------------|
D---------------------------------------------------------------|
A---------------------------------------------------------------|
D-12121212121212-14-7777-12-7-12-14-99999999-55555555-----------|

G---------------------------------------------------------------|
D---------------------------------------------------------------|
A------------7-9-12------12-9-12-14-----------------------------|
D-1212121212--------7777------------99999999-55555555-----------|

Bridge:

G---------------------------------------------------------------|
D---------------------------------------------------------------|
A---------------------------------------------------------------|
D-1414141414141414-9999-7777-55555555-12121212-14-12-14-16------|

G---------------------------------------------------------------|
D---------------------------------------------------------------|
A---------------------------------------------------------------|
D-1414141414141414-9999-7777-55555555-12121212-7777-------------|

intro/verse part:
G---------------------------------------------------------------|
D---------------------------------------------------------------|
A---------------------------------------------------------------|
D-12-12-9-5-12121212121212121212121212121212-99999999-5~--------|

Chorus: Till the end...

G---------------------------------------------------------------|
D---------------------------------------------------------------|
A---------------------------------------------------------------|
D-12121212121212-14-7777-12-7-12-14-99999999-55555555-----------|

G---------------------------------------------------------------|
D---------------------------------------------------------------|
A------------7-9-12------12-9-12-14-----------------------------|
D-1212121212--------7777------------99999999-55555555-----------|
            
Submit corrections

comments powered by Disqus
↑ Back to top | The Last Goodnight Bass for Pictures Of You. Lyrics for acoustic guitar and electric guitar. Tablatures and chords are parodies/interpretations of the original songs. You may use it for private study, scholarship, research or language learning purposes only