» » »

Pictures Of You Tabs (ver.2)

Artists:  A B C D E F G H I J K L M N O P Q R S T U V W X Y Z # 

Pictures Of You Tabs (ver.2)

The Last Goodnight
Rating:
4/5 (4 votes)

Hard to play? Try these video lessons and learn fast.
                well this song is nice and i hope you rate for this

This is the intro for piano I think it sounds good
INTRO/VERSE
GUITAR 1
e|------------------------|
B|------------------------|
G|------------------------|
D|----7---7---------------|
A|--5---5-------7-----5---|
E|-----------5-----3------|

GUITAR 2
e|------------------------|
B|--10--------------------|
G|-----7--9--7------------|
D|------------------------|
A|------------------------|
E|------------------------|

THERE IS A LITTLE SOLO IN THE SECOND INTRO/VERSE
e|--------------|
B|--------------|
G|--------------|
D|--------------|
A|--4-6-8-6-4-3-| NOT SURE ABOUT THIS
E|--------------|

CHORUS
GUITAR 1
e|-----------------------------------|
B|-----------------------------------|
G|---777777--------------------------|
D|---777777--777777--999999--555555--|
A|---555555--777777--999999--555555--|
E|-----------555555--777777--333333--|

GUITAR 2 (IN ALL THE SONG I PLAY THE SECOND GUITAR LIKE THE PIANO)
e|-------------------------|
B|-------------------------|
G|-------------------------|
D|----7--------------------|
A|--5------7---9---5-------|
E|-------5---7---3---------|
This one is played in the beginning of each chord

BRIDGE
e|-----------------------------------|
B|-----------------------------------|
G|-----------------------------------|
D|--555555--777777-------------------|
A|--555555--777777-------------------|
E|--333333--555555-------------------|

ENDING BOTH GUITARS
e|--------------------------------------|
B|--------------------------------------|
G|---777777--------------------------7--|
D|---777777--777777--999999--555555--7--|
A|---555555--777777--999999--555555--5--|
E|-----------555555--777777--333333-----|

ORDER

INTRO/VERSE   X3
CHORUS        X2
INTRO/VERSE   X2 THE SOLO IS IN THE VERSE 
CHORUS        X2
BRIDGE        X4
INTRO/VERSE   X2
CHORUS        X5
ENDING/CHORUS X1
            
Hard to play? Try these video lessons and learn fast. | Correct




comments powered by Disqus
↑ Back to top | Tablatures and chords are parodies/interpretations of the original songs. You may use it for private study, scholarship, research or language learning purposes only