» » »

Insurance Tabs (ver.3)

Artists:  A B C D E F G H I J K L M N O P Q R S T U V W X Y Z # 

Insurance Tabs (ver.3)

The Higher
Rating:
0/5 (0 votes)

Hard to play? Try these video lessons and learn fast.
                -------------------------------------------------------------------------------
                             INSURANCE - The Higher
-------------------------------------------------------------------------------

Tuning: Drop D

INTRO

Done by synth but tabbed it out
e|---9---7-77----------------------------------------------------------------|
B|---10--7-77--10--10/7------------------------------------------------------|
G|--------------9---9/6------------------------------------------------------|
D|---------------------------------------------------------------------------|
A|---------------------------------------------------------------------------|
D|---------------------------------------------------------------------------|

VERSE
e|---3----3-3-3----3-3-3----3-3-5---555-----------------------------------------|
B|---3----3-3-3----3-3-4----4-4-6---666-----------------------------------------|
G|---3----3-3-3----3-3-3----3-3-5---555-----10----------------------------------|
D|---5----5-5-5----5-5-5----5-5-7---777-----10----------------------------------|
A|---5----5-5-5----5-5-3----3-3-5---555-----8-----------------------------------|
D|---5----5-5-5----5-5----------------------------------------------------------|


-break-
e|---9---7-77----------------------------------------------------------------|
B|---10--7-77--10--10/7------------------------------------------------------|
G|--------------9---9/6------------------------------------------------------|
D|---------------------------------------------------------------------------|
A|---------------------------------------------------------------------------|
D|---------------------------------------------------------------------------|


CHORUS

Rhythm
e|--------------------------------------------||-------------------------------------------------------|
B|--------------------------------------------||-------------------------------------------------------|
G|------------33333333--55555555--------------||------------33333333--5-5--5-5--5-5--------------------|
D|--55555555--33333333--55555555--1111--3333--||--55555555--33333333--5-5--5-5--5-5--11-3-3---5--------|
A|--55555555--11111111--33333333--1111--3333--||--55555555--11111111--3-3--3-3--3-3--11-3-3---5--------|
D|--55555555----------------------1111--3333--||--55555555---------------------------11-3-3---5--------|

Lead
e|-------------------------|        |--------------------------------------------------|
B|-------15--------13--11--|        |--------------------------------------------------|
G|-12h15-----12h15---------| Repeat |-15-15-15-15---14-14--12-12-----------------------|
D|-------------------------|3 times |--------------------------------------------------|
A|-------------------------|  then  |--------------------------------------------------|
D|-------------------------|        |--------------------------------------------------|

2nd part
e|-------------------------|        |------------------------------------------|
B|-------15--------13--11--|        |------------------------------------------|
G|-12h15-----12h15---------| Repeat |-10-12--10-12--10-12---10-12-14-15-14--12-|
D|-------------------------| twice  |------------------------------------------|
A|-------------------------|  then  |------------------------------------------|
D|-------------------------|        |------------------------------------------|

BRIDGE

Rhythm
e|---------------------------------------------------------------------------|
B|---------------------------------------------------------------------------|
G|---------------------------------------------------------------------------|
D|--55----5-8-3-1111-3333----------------------------------------------------|
A|--55----5-8-3-1111-3333----------------------------------------------------|
D|--55----5-8-3-1111-3333----------------------------------------------------|

Lead
e|--------------------------------------------------------------------|
B|--------------------------------------------------------------------|
G|-------3b4---------------3p0----------------------------------------|
D|---3-0-----5-3-5-----3h5-----3p0-----3h5-3--------------------------|
A|-----------------3h5-------------3p0--------------------------------|
D|-5------------------------------------------------------------------|

| /  slide up
| \  slide down
| h  hammer-on
| p  pull-off
| ~  vibrato
| +  harmonic
| x  Mute note
===============================================================================
            
Hard to play? Try these video lessons and learn fast. | Correct




comments powered by Disqus
↑ Back to top | Tablatures and chords are parodies/interpretations of the original songs. You may use it for private study, scholarship, research or language learning purposes only