» » »

The Higher, Insurance Bass tabs (ver.1)

Artists:  A B C D E F G H I J K L M N O P Q R S T U V W X Y Z # 

Insurance Bass tabs (ver.1)

The Higher Tabs
Rating:
0/5 (0 votes)
Insurance lessons Tabs too difficult? Try these video lessons and learn fast
                Main Riff-Repeat as necessary
G-----3/5-------------3/5--7---------3/10--7--5h7p5-----5/10---/12--/10--------|
D----------3h5-3h5------------5------------------------------------------------|
A---------------------------------3------------------5-------------------------|
E--3---------------3-----------------------------------------------------------|
chorus
G-------------------------------------------------------------------------------|
D-------------------------------------1111-3333-------------------------11-3333-|
A-------------------11111111-33333333--------------------11111111--3333---------|
E--16\1----33333333-----------------------------33333333------------------------|
little bridge thing
G-------3/5-7------------------------------------------------------------------|
D-------------5----------------------------------------------------------------|
A------------------------------------------------------------------------------|
E-3-333------------------------------------------------------------------------|
guitar solo
G------------------------------------------------------------------------------|
D------------------------------------------------------------------------------|
A----------------666-888-------------------------------------------------------|
E-3-3/19---33/66---------------------------------------------------------------|

order- main riff, chorusx1, bridge thing, main riff, chorusx2, guitar solo, chorusx2
hope its good, should be :-)
            
Submit corrections

comments powered by Disqus
↑ Back to top | The Higher Bass for Insurance. Lyrics for acoustic guitar and electric guitar. Tablatures and chords are parodies/interpretations of the original songs. You may use it for private study, scholarship, research or language learning purposes only