» » »

Insurance Bass tabs (ver.2)

Artists:  A B C D E F G H I J K L M N O P Q R S T U V W X Y Z # 

Insurance Bass tabs (ver.2)

The Higher
Rating:
0/5 (0 votes)

Hard to play? Try these video lessons and learn fast.
                -------------------------------------------------------------------------------
			     Insurance? - The Higher
-------------------------------------------------------------------------------

Tuning: standard

I really love the bass line for this song.  So damn catchy and fun to play :)

Verse 
G|----------------------------------8h10----------10-1010-10h12|
D|----8h10-----8---8h10-10h12----10-----8h10-1010--------------|
A|-10-----8h10---10-----------10-------------------------------|
E|-------------------------------------------------------------| x2

"So if you wanna see the show..."
G|---------------------------------------|
D|----8h10----------8h10-10h12---10-10\--|
A|-10-----8h10-1010-----------10---------|
E|---------------------------------------|

Chorus "Let's burn this building down..."
G|-----------------------------------|----------------------------------|
D|-----------------------------------|----------------------------------|
A|--------------------------6666-8888|----------------------66-66-8-8-10|
E|-33333333-66666666-8888888---------|33333333-6666686-88-88------------|

pre-verse
G|-----------------|
D|8h10-10h12-------|
A|-----------10/15-|
E|-----------------|

Verse 
G|----------------------------------8h10----------10-|
D|----8h10-----8---8h10-10h12----10-----8h10-1010----|
A|-10-----8h10---10-----------10---------------------|
E|---------------------------------------------------| 

G|----------------------------------8h10----------10-1010-10h12|
D|----8h10-----8---8h10-10h12----10-----8h10-1010--------------|
A|-10-----8h10---10-----------10-------------------------------|
E|-------------------------------------------------------------| x2

Chorus "Let's burn this building down..." end last chorus with 10
G|-----------------------------------|-------------------------------|
D|-----------------------------------|-------------------------------|
A|--------------------------6666-8888|----------------------66-66-8-8|   
E|-33333333-66666666-8888888---------|33333333-6666686-88-88---------|x2

bridge "i'll make you want this"
G|-----|--------------------------------------------|
D|-----|--------------------------------------------|
A|-5\--|--------66-88----------66-88--------66-/15--|
E|-----|33--66---------33--66--------33--66---------|

Outro Chorus "Let's burn this building down..."
G|-----------------------------------|---------------------------------|
D|-----------------------------------|---------------------------------|
A|--------------------------6666-8888|----------------------66-66-8-8--|
E|-33333333-66666666-8888888---------|33333333-6666686-88-88-----------|x2
       
G|---------------------|
D|---------------------|
A|-66666666-88888888-10|
E|---------------------|
            
Hard to play? Try these video lessons and learn fast. | Correct




comments powered by Disqus
↑ Back to top | Tablatures and chords are parodies/interpretations of the original songs. You may use it for private study, scholarship, research or language learning purposes only