» » »

Insurance Tabs (ver.2)

Artists:  A B C D E F G H I J K L M N O P Q R S T U V W X Y Z # 

Insurance Tabs (ver.2)

The Higher
Rating:
0/5 (0 votes)

Hard to play? Try these video lessons and learn fast.
                INSURANCE by THE HIGHER


INTRO is not guitar but you can play this:

E:--------------------|
B:--------------------|
G:--------------------|
D:--5-3--3-3----------|
A:-------------5-5h3--|
E:--------------------|


E:--------------------------------|--------------------------------|
B:--------------------------------|--------------------------------|
G:----------------5--5-5-7--7-3---|----------------5--5-5-7--7-----|
D:--5--5-5-5--5-5-5--5-5-7--7-3---|--5--5-5-5--5-5-5--5-5-7--7-----|
A:--5--5-5-5--5-5-3--3-3-5--5-1---|--5--5-5-5--5-5-3--3-3-5--5-----|
E:--3--3-3-3--3-3-----------------|--3--3-3-3--3-3-----------------|
                    x3

                             dirty looks and glances
E:--------------------------|------------------|
B:--------------------------|------------------|
G:--------14----------------|--14-14--14-13----|
D:--13h15----13h15p14-13----|---------------15-|
A:--------------------------|------------------|
E:--------------------------|------------------|
             x3

                               rock u  shock u drop u  and make you want it more
E:--------------------------|-------------------------------------------|
B:--------------------------|--------------------------------12-14------|
G:--------14----------------|--13-14---13-14---13-14---13-14-------13---|
D:--13h15----13h15p14-13----|-------------------------------------------|
A:--------------------------|-------------------------------------------|
E:--------------------------|-------------------------------------------|
           x2

E:----------------|
B:----------------|
G:----------------|
D:--5---7-7--7----|
A:--5-------------|
E:--3-------------|

SOLO:

E:-------------------------------------------|
B:-------------------------------------------|
G:-------3b4---------------3p0---------------|
D:---3-0-----5-3-5-----3h5-----3p0-----3h5-3-|
A:-----------------3h5-------------3p0-------|
E:-3-----------------------------------------|
 after the first time starts the second guitar

GUITAR2:

E:-----------------------------|
B:-----------------------------|
G:-----7-5----------7-5--------|
D:--5--7-5-1--8--5--7-5-1--3---|
A:--5--5-3-1--8--5--5-3-1--3---|
E:--3------1--8--3------1--3---|


sorry for the many errors but is my first tab! :)
            
Hard to play? Try these video lessons and learn fast. | Correct




comments powered by Disqus
↑ Back to top | Tablatures and chords are parodies/interpretations of the original songs. You may use it for private study, scholarship, research or language learning purposes only