>
 >
Bide Your Time 1

Bide Your Time 1 Guitar Tabs

The Courteeners - Bide Your Time 1 chords, tabs, tablatures, lyrics

Guitar lessons | Add/correct | Request | Top 50 tabs Artists:  A B C D E F G H I J K L M N O P Q R S T U V W X Y Z 0-9

Bide Your Time 1 Guitar Tabs – The Courteeners

CD, Sheet music, Poster

Do you like Bide Your Time 1? Share with your friends now
ChordsChords v2Chords v3TabsTabs v2Ukulele

tuning: stanadard EADGBe

intro

e-10-x--10--10p7--9--x--9---9p7--7--x--7--7-7--9--x--9---9p7-|
B-7--x--7---7--7--10-x--10-10p7--8--x--8--8p7--10-x--10-10p7-|
G-7--x--7---7--7--7--x--7---7----7--x--7--7-7--7--x--7---7-7-|x8
D-7--x--7---7--7--7--x--7---7----9--x--9--9-7--7--x--7---7-7-|
A------------------------------------------------------------|
E------------------------------------------------------------|


2nd guitar

e-10--------9--------7--------9--------|
B-7---------10-------8--------10-------|
G-7---------7--------7--------7--------| X 7
D-7---------7--------9--------7--------|
A--------------------------------------|
E--------------------------------------|                      


                      FROM  0.00  to  0.42


pre-verse

e-7--7--7--7--9--9--9--9--9--9--9--9--9--9--9--9--9--9--9--9--|
B-8--8--8--8--10-10-10-10-10-10-10-10-10-10-10-10-10-10-10-10-|
G-7--7--7--7--7--7--7--7--7--7--7--7--7--7--7--7--7--7--7--7--|
D-9--9--9--9--7--7--7--7--7--7--7--7--7--7--7--7--7--7--7--7--|
A-------------------------------------------------------------|
E-------------------------------------------------------------|

                          FROM 0.43  to  0.48

verse

e-7-X-7--7-7--9--X-9--9--9--|
B-7-X-7--7-7--10-X-10-10-10-|
D-7-X-7--7-7--7--X-7--7--7--| x 3
G-7-X-7--7-7--7--X-7--7--7--|
A---------------------------|
E---------------------------|

2nd guitar

e------------7-----|
B-10-8----10-------|                    
G------11------11--| x 3
D------------------|
A------------------|
E------------------|

e-7-7-7-7-7-X-X-9--9--9--|
B-8-8-8-8-8-X-X-10-10-10-|
G-7-7-7-7-7-X-X-7--7--7--|    
D-9-9-9-9-9-X-X-7--7--7--|
A------------------------|
E------------------------|

e-7-X-7--7-7--9--X-9--9--9--|
B-7-X-7--7-7--10-X-10-10-10-|
D-7-X-7--7-7--7--X-7--7--7--| x 3
G-7-X-7--7-7--7--X-7--7--7--|
A---------------------------|
E---------------------------|

2nd guitar

e------------7-----|
B-10-8----10-------|                    
G------11------11--| x 3
D------------------|
A------------------|
E------------------|

e-7-7-7-7-7-X-X-9--9---9-|
B-8-8-8-8-8-X-X-10-10--10|
G-7-7-7-7-7-X-X-7--7---7-| X 3
D-9-9-9-9-9-X-X-7--7---7-|
A------------------------|
E------------------------|


                          FROM 0.49  TO  1.15


e-10-x--10--10p7--9--x--9---9p7--7--x--7--7-7--9--x--9---9p7-x-x--x-x-x|
B-7--x--7---7--7--10-x--10-10p7--8--x--8--8p7--10-x--10-10p7-x-x--x-x-x|
G-7--x--7---7--7--7--x--7---7----7--x--7--7-7--7--x--7---7-7-x-x--x-x-x|x2 
D-7--x--7---7--7--7--x--7---7----9--x--9--9-7--7--x--7---7-7-x-x--x-x-x|      
A----------------------------------------------------------------------|    
E----------------------------------------------------------------------|


                          FROM 1.15  TO  1.25 

bridge

e-10----9----7----9--|
B-7-----10---8----10-|
G-7-----7----7----7--| X 2 (broken)
D-7-----7----9----7--|
A--------------------|
E--------------------|

                          FROM 1.25  TO  1.36

pre-verse

e-7--7--7--7--9--9--9--9--9--9--9--9--9--9--9--9--9--9--9--9--|
B-8--8--8--8--10-10-10-10-10-10-10-10-10-10-10-10-10-10-10-10-|
G-7--7--7--7--7--7--7--7--7--7--7--7--7--7--7--7--7--7--7--7--|
D-9--9--9--9--7--7--7--7--7--7--7--7--7--7--7--7--7--7--7--7--|
A-------------------------------------------------------------|
E-------------------------------------------------------------|

                          
                         FROM 1.36  TO  1.43

verse

e-7-X-7--7-7--9--X-9--9--9--|
B-7-X-7--7-7--10-X-10-10-10-|
D-7-X-7--7-7--7--X-7--7--7--| x 3
G-7-X-7--7-7--7--X-7--7--7--|
A---------------------------|
E---------------------------|

2nd guitar

e------------7-----|
B-10-8----10-------|                    
G------11------11--| x 3
D------------------|
A------------------|
E------------------|

e-7-7-7-7-7-X-X-9--9--9--|
B-8-8-8-8-8-X-X-10-10-10-|
G-7-7-7-7-7-X-X-7--7--7--|    
D-9-9-9-9-9-X-X-7--7--7--|
A------------------------|
E------------------------|

e-7-X-7--7-7--9--X-9--9--9--|
B-7-X-7--7-7--10-X-10-10-10-|
D-7-X-7--7-7--7--X-7--7--7--| x 3
G-7-X-7--7-7--7--X-7--7--7--|
A---------------------------|
E---------------------------|

2nd guitar

e------------7-----|
B-10-8----10-------|                    
G------11------11--| x 3
D------------------|
A------------------|
E------------------|

e-7-7-7-7-7-X-X-9--9---9-|
B-8-8-8-8-8-X-X-10-10--10|
G-7-7-7-7-7-X-X-7--7---7-| X 3
D-9-9-9-9-9-X-X-7--7---7-|
A------------------------|
E------------------------|

                               
                           FROM 1.43  TO  2.08

fill

e-10-x--10--10p7--9--x--9---9p7--7--x--7--7-7--9--x--9---9p7-x-x--x-x-x|
B-7--x--7---7--7--10-x--10-10p7--8--x--8--8p7--10-x--10-10p7-x-x--x-x-x|
G-7--x--7---7--7--7--x--7---7----7--x--7--7-7--7--x--7---7-7-x-x--x-x-x|X2 
D-7--x--7---7--7--7--x--7---7----9--x--9--9-7--7--x--7---7-7-x-x--x-x-x| 
A----------------------------------------------------------------------|    
E----------------------------------------------------------------------|

2nd guitar

e-7-77------------------------------------------------------|
B------10-8-------------------------------------------------|  
G------------11-9/11------11--9----9/11------11--9----------|
D--------------------11-9-------12------11 9-------12-------|
A-----------------------------------------------------------|
E-----------------------------------------------------------|                               



                        FROM 2.08  TO  2.19


pre-verse

e-7--7--7--7--9--9--9--9--9--9--9--9--9--9--9--9--9--9--9--9--|
B-8--8--8--8--10-10-10-10-10-10-10-10-10-10-10-10-10-10-10-10-|
G-7--7--7--7--7--7--7--7--7--7--7--7--7--7--7--7--7--7--7--7--|
D-9--9--9--9--7--7--7--7--7--7--7--7--7--7--7--7--7--7--7--7--|
A-------------------------------------------------------------|
E-------------------------------------------------------------|

                         FROM 2.22   TO  2.26

verse

e-7-X-7--7-7--9--X-9--9--9--|
B-7-X-7--7-7--10-X-10-10-10-|
D-7-X-7--7-7--7--X-7--7--7--| x 3
G-7-X-7--7-7--7--X-7--7--7--|
A---------------------------|
E---------------------------|

2nd guitar

e------------7-----|
B-10-8----10-------|                    
G------11------11--| x 3
D------------------|
A------------------|
E------------------|

e-7-7-7-7-7-X-X-9--9--9--|
B-8-8-8-8-8-X-X-10-10-10-|
G-7-7-7-7-7-X-X-7--7--7--|    
D-9-9-9-9-9-X-X-7--7--7--|
A------------------------|
E------------------------|

e-7-X-7--7-7--9--X-9--9--9--|
B-7-X-7--7-7--10-X-10-10-10-|
D-7-X-7--7-7--7--X-7--7--7--| x 3
G-7-X-7--7-7--7--X-7--7--7--|
A---------------------------|
E---------------------------|

2nd guitar

e------------7-----|
B-10-8----10-------|                    
G------11------11--| x 3
D------------------|
A------------------|
E------------------|

e-7-7-7-7-7-X-X-9--9---9-|
B-8-8-8-8-8-X-X-10-10--10|
G-7-7-7-7-7-X-X-7--7---7-| X 3
D-9-9-9-9-9-X-X-7--7---7-|
A------------------------|
E------------------------|

                           FROM 2.26  TO  2.51

outro


e-10-x--10--10p7--9--x--9---9p7--7--x--7--7-7--9--x--9---9p7-x-x--x-x-x|
B-7--x--7---7--7--10-x--10-10p7--8--x--8--8p7--10-x--10-10p7-x-x--x-x-x|
G-7--x--7---7--7--7--x--7---7----7--x--7--7-7--7--x--7---7-7-x-x--x-x-x|X4 
D-7--x--7---7--7--7--x--7---7----9--x--9--9-7--7--x--7---7-7-x-x--x-x-x| 
A----------------------------------------------------------------------|    
E----------------------------------------------------------------------|


2nd guitar

e-7-77------------------------------------------------------|
B------10-8-------------------------------------------------|  
G------------11-9/11------11--9----9/11------11--9----------|
D--------------------11-9-------12------11 9-------12-------|
A-----------------------------------------------------------|
E-----------------------------------------------------------|    


e-9--7-7-10-|
B-10-8-7-7--|
G-7--7-7-7--|
D-7--9-7-7--|
A-----------|
E-----------|                      



                          FROM 2.51 TO 3.20 



                           MINT SONG. MINT BAND





Comments


Popular The Courteeners tabs & chords
Kings Of The New Road Bass Tabs
Forget The Weight Of The World Chords
Good Times Are Calling Chords
You Overdid It Doll 3 Chords
Bide Your Time Tabs
Not Nineteen Forever Tabs
You Overdid It Doll Tabs
An Ex Is An Ex For A Reason Ukulele
Are You In Love With A Notion Ukulele
Cameo Brooch Ukulele


Song lyrics



↑ Back to top | Tablatures and chords are parodies/interpretations of the original songs. You may use it for private study, scholarship, research or language learning purposes only
© 2014 AZChords.com Contact us | Privacy policy | DMCA | Add/correct tabs | Request tabs | Top 50 tabs