» » »

Bide Your Time Tabs (ver.1)

Artists:  A B C D E F G H I J K L M N O P Q R S T U V W X Y Z # 

Bide Your Time Tabs (ver.1)

The Courteeners
Rating:
5/5 (2 votes)

Hard to play? Try these video lessons and learn fast.
                The Courteeners are gonna be the Best Band of 2008 i know it!

intro

e-xx--xx-x--10-x--10--10p7--9--x--9---9p7--7--x--7--7-7--9--x--9---9p7-|
B-xx--xx-x--7--x--7---7--7--10-x--10-10p7--8--x--8--8p7--10-x--10-10p7-|
G-xx--xx-x--7--x--7---7--7--7--x--7---7----7--x--7--7-7--7--x--7---7-7-|x8
D-xx--xx-x--7--x--7---7--7--7--x--7---7----9--x--9--9-7--7--x--7---7-7-|
A----------------------------------------------------------------------|
E----------------------------------------------------------------------|

                         FROM  0.00  to  0.43


pre-verse

e-10-10-10-10-9--9--9--9--9--9--9--9--9--9--9--9--9--9--9--9--|
B-7--7--7--7--10-10-10-10-10-10-10-10-10-10-10-10-10-10-10-10-|
G-7--7--7--7--7--7--7--7--7--7--7--7--7--7--7--7--7--7--7--7--|
D-7--7--7--7--7--7--7--7--7--7--7--7--7--7--7--7--7--7--7--7--|
A-------------------------------------------------------------|
E-------------------------------------------------------------|

                          FROM 0.44  to  0.50

verse

e----------------------------|
B-7-X-7--7-7/14-X-14--14-14\-|
D-7-X-7--7-7/14-X-14--14-14\-|  x 3
G-7-X-7--7-7/14-X-14--14-14\-|
A----------------------------|
E----------------------------|

e-7-7-7-7-7-X-X-7-7--7-|
B-8-8-8-8-8-X-X-7-7--7-|
G-7-7-7-7-7-X-X-7-7--7-|    
D-9-9-9-9-9-X-X-7-7--7-|
A----------------------|
E----------------------|

e----------------------------|
B-7-X-7--7-7/14-X-14--14-14\-|
D-7-X-7--7-7/14-X-14--14-14\-|  x 3
G-7-X-7--7-7/14-X-14--14-14\-|
A----------------------------|
E----------------------------|

e-7-7-7-7-7-X-X-7-7--7|-7-7-7-7-7-X-X-7-7--7--7|-7-7-7-7-7-X-X-9--9--9--|
B-8-8-8-8-8-X-X-7-7--7|-8-8-8-8-8-X-X-7-7--7--7|-8-8-8-8-8-X-X-10-10-10-|
G-7-7-7-7-7-X-X-7-7--7|-7-7-7-7-7-X-X-7-7--7--7|-7-7-7-7-7-X-X-7--7--7--|
D-9-9-9-9-9-X-X-7-7--7|-9-9-9-9-9-X-X-7-7--7--7|-9-9-9-9-9-X-X-7--7--7--|
A---------------------|------------------------|------------------------|
E---------------------|------------------------|------------------------|


                          FROM 0.51  TO  1.16


e-10-x--10--10p7--9--x--9---9p7--7--x--7--7-7--9--x--9---9p7-x-x--x-x-x|
B-7--x--7---7--7--10-x--10-10p7--8--x--8--8p7--10-x--10-10p7-x-x--x-x-x|
G-7--x--7---7--7--7--x--7---7----7--x--7--7-7--7--x--7---7-7-x-x--x-x-x|x2 
D-7--x--7---7--7--7--x--7---7----9--x--9--9-7--7--x--7---7-7-x-x--x-x-x|      
A----------------------------------------------------------------------|    
E----------------------------------------------------------------------|


                          FROM 1.17  TO  1.27 

bridge

e-10----9----7----9--|
B-7-----10---8----10-|
G-7-----7----7----7--|
D-7-----7----9----7--|
A--------------------|
E--------------------|

                          FROM 1.28  TO  1.37

pre-verse

e-10-10-10-10-9--9--9--9--9--9--9--9--9--9--9--9--9--9--9--9--|
B-7--7--7--7--10-10-10-10-10-10-10-10-10-10-10-10-10-10-10-10-|
G-7--7--7--7--7--7--7--7--7--7--7--7--7--7--7--7--7--7--7--7--|
D-7--7--7--7--7--7--7--7--7--7--7--7--7--7--7--7--7--7--7--7--|
A-------------------------------------------------------------|
E-------------------------------------------------------------|

                          FROM 1.38  TO  1.44

verse

e----------------------------|
B-7-X-7--7-7/14-X-14--14-14\-|
D-7-X-7--7-7/14-X-14--14-14\-|  x 3
G-7-X-7--7-7/14-X-14--14-14\-|
A----------------------------|
E----------------------------|

e-7-7-7-7-7-X-X-7-7--7-|
B-8-8-8-8-8-X-X-7-7--7-|
G-7-7-7-7-7-X-X-7-7--7-|    
D-9-9-9-9-9-X-X-7-7--7-|
A----------------------|
E----------------------|

e----------------------------|
B-7-X-7--7-7/14-X-14--14-14\-|
D-7-X-7--7-7/14-X-14--14-14\-|  x 3
G-7-X-7--7-7/14-X-14--14-14\-|
A----------------------------|
E----------------------------|

e-7-7-7-7-7-X-X-7-7--7|-7-7-7-7-7-X-X-7-7--7--7|-7-7-7-7-7-X-X-9--9--9--|
B-8-8-8-8-8-X-X-7-7--7|-8-8-8-8-8-X-X-7-7--7--7|-8-8-8-8-8-X-X-10-10-10-|
G-7-7-7-7-7-X-X-7-7--7|-7-7-7-7-7-X-X-7-7--7--7|-7-7-7-7-7-X-X-7--7--7--|
D-9-9-9-9-9-X-X-7-7--7|-9-9-9-9-9-X-X-7-7--7--7|-9-9-9-9-9-X-X-7--7--7--|
A---------------------|------------------------|------------------------|
E---------------------|------------------------|------------------------|

                               FROM 1.45  TO  2.12

fill

e-10-x--10--10p7--9--x--9---9p7--7--x--7--7-7--9--x--9---9p7-x-x--x-x-x|
B-7--x--7---7--7--10-x--10-10p7--8--x--8--8p7--10-x--10-10p7-x-x--x-x-x|
G-7--x--7---7--7--7--x--7---7----7--x--7--7-7--7--x--7---7-7-x-x--x-x-x|X2 
D-7--x--7---7--7--7--x--7---7----9--x--9--9-7--7--x--7---7-7-x-x--x-x-x| 
A----------------------------------------------------------------------|    
E----------------------------------------------------------------------|

                               FROM 2.13  TO  2.21


pre-verse

e-10-10-10-10-9--9--9--9--9--9--9--9--9--9--9--9--9--9--9--9--|
B-7--7--7--7--10-10-10-10-10-10-10-10-10-10-10-10-10-10-10-10-|
G-7--7--7--7--7--7--7--7--7--7--7--7--7--7--7--7--7--7--7--7--|
D-7--7--7--7--7--7--7--7--7--7--7--7--7--7--7--7--7--7--7--7--|
A-------------------------------------------------------------|
E-------------------------------------------------------------|

                               FROM 2.22   TO  2.28



verse

e----------------------------|
B-7-X-7--7-7/14-X-14--14-14\-|
D-7-X-7--7-7/14-X-14--14-14\-|  x 3
G-7-X-7--7-7/14-X-14--14-14\-|
A----------------------------|
E----------------------------|

e-7-7-7-7-7-X-X-7-7--7-|
B-8-8-8-8-8-X-X-7-7--7-|
G-7-7-7-7-7-X-X-7-7--7-|    
D-9-9-9-9-9-X-X-7-7--7-|
A----------------------|
E----------------------|

e----------------------------|
B-7-X-7--7-7/14-X-14--14-14\-|
D-7-X-7--7-7/14-X-14--14-14\-|  x 3
G-7-X-7--7-7/14-X-14--14-14\-|
A----------------------------|
E----------------------------|

e-7-7-7-7-7-X-X-7-7--7|-7-7-7-7-7-X-X-7-7--7--7|-7-7-7-7-7-X-X-9--9--9--|
B-8-8-8-8-8-X-X-7-7--7|-8-8-8-8-8-X-X-7-7--7--7|-8-8-8-8-8-X-X-10-10-10-|
G-7-7-7-7-7-X-X-7-7--7|-7-7-7-7-7-X-X-7-7--7--7|-7-7-7-7-7-X-X-7--7--7--|
D-9-9-9-9-9-X-X-7-7--7|-9-9-9-9-9-X-X-7-7--7--7|-9-9-9-9-9-X-X-7--7--7--|
A---------------------|------------------------|------------------------|
E---------------------|------------------------|------------------------|

                           FROM 2.29  TO  2.54

outro


e-10-x--10--10p7--9--x--9---9p7--7--x--7--7-7--9--x--9---9p7-x-x--x-x-x|
B-7--x--7---7--7--10-x--10-10p7--8--x--8--8p7--10-x--10-10p7-x-x--x-x-x|
G-7--x--7---7--7--7--x--7---7----7--x--7--7-7--7--x--7---7-7-x-x--x-x-x|X2 
D-7--x--7---7--7--7--x--7---7----9--x--9--9-7--7--x--7---7-7-x-x--x-x-x| 
A----------------------------------------------------------------------|    
E----------------------------------------------------------------------|



    thanks that were my first tab cheers and be gentle with the ratings xD
            
Hard to play? Try these video lessons and learn fast. | Correct




comments powered by Disqus
↑ Back to top | Tablatures and chords are parodies/interpretations of the original songs. You may use it for private study, scholarship, research or language learning purposes only