» » »

The Click Five, Jenny Tabs (ver.1)

Artists:  A B C D E F G H I J K L M N O P Q R S T U V W X Y Z # 

Jenny Tabs (ver.1)

The Click Five Tabs
Rating:
3/5 (1 vote)
Jenny lessons Tabs too difficult? Try these video lessons and learn fast
                (Intro)
Jenny by click five

Intro:

Guitar 1:
e|--------------------------------|
B|--------------------------------|
G|--------------------------------|
D|--------------------------------|
A|---666--------666---------------|
E|---444--------444---------------|

Guitar 2:
e|---------------------------------------|
B|---------------------------------------|
G|-----3--1------3--1------3—-1------3--1|
D|--0---------0---------0---------0------|   
A|---------------------------------------|
E|---------------------------------------|

e|------------------------------------------------------------------|
B|------------------------------------------------------------------|
G|-----------------—-----------—------------------------------------|
D|---------666---666-----666--666----666--666----666--666---666-----|
A|---------444---444-----444--444----444--444----444--444---444-----|
E|------------------------------------------------------------------|

Guitar 2:
e|---2----2------------------------------------|
B|-----2-----1---1---0---1---0---1-------------|
G|---------------------—-----------------------|
D|---------------------------------------------|  2x 
A|---------------------------------------------|
E|---------------------------------------------|







tabb: Bryll G. Duran and claire ann gonzales

                              
                            i love my gf claire ann
                      

                                    TNX
                            
            
Submit corrections

comments powered by Disqus
↑ Back to top | The Click Five Tabs for Jenny. Lyrics for acoustic guitar and electric guitar. Tablatures and chords are parodies/interpretations of the original songs. You may use it for private study, scholarship, research or language learning purposes only