» » »

The Click Five, Jenny Bass tabs (ver.1)

Artists:  A B C D E F G H I J K L M N O P Q R S T U V W X Y Z # 

Jenny Bass tabs (ver.1)

The Click Five Tabs
Rating:
0/5 (0 votes)
Jenny lessons Tabs too difficult? Try these video lessons and learn fast
                G|--------------------------------------------------------------------------------|
D|--------------------------------------------------------------------------------|
A|-2222222----444444444--4---1---4---1----4--4------------------------------------|
E|--------------------------------------------------------------------------------|
			  

G|--------------------------------------------------------------------------------|
D|--------------------------------------------------------------------------------|
A|-4--1--4--1--4--4--6-6-6---66666666----4----------------------------------------|
E|--------------------------------------------------------------------------------|


G|--------------------------------------------------------------------------------|
D|--------------------------------------------------------------------------------|
A|-4-4--3-3-------4-4--3-3-------8-6-4---8-6--8-8-4--8-4-----4-3-3-4--------------|
E|-----------4444-----------4-4---------------------------------------------------|


G|--------------------------------------------------------------------------------|
D|--------------------------------------------------------------------------------|
A|-4-3-3-4--4-3-3-4--8-6----------------------8-6-4---8-6-------------------------|
E|--------------------------------------------------------------------------------|


G|--------------------------------------------------------------------------------|
D|--------------------------------------------------------------------------------|
A|-8-8-4---8-4--4-3--44--33---------44--33----------------------------------------|
E|---------------------------4444-----------44------------------------------------|


G|--------------------------------------------------------------------------------|
D|--------------------------------------------------------------------------------|
A|-11--8--4--8-6--8-8-4--8-4--4334--4334---6-4------------------------------------|
E|--------------------------------------------------------------------------------|
            
Submit corrections

comments powered by Disqus
↑ Back to top | The Click Five Bass for Jenny. Lyrics for acoustic guitar and electric guitar. Tablatures and chords are parodies/interpretations of the original songs. You may use it for private study, scholarship, research or language learning purposes only