» » »

The Click Five, Happy Birthday Tabs (ver.1)

Artists:  A B C D E F G H I J K L M N O P Q R S T U V W X Y Z # 

Happy Birthday Tabs (ver.1)

The Click Five Tabs
 Rating:
3.7/5 (6 votes)
Happy Birthday lessons Tabs too difficult? Try these video lessons and learn fast
1
                Intro
|------------------------------|
|------------------------------|
|------------------------------|
|------------------------------|    2x
|-77777------------------------|
|-------777-99999-555----------|

Verse I
|------------------------------|
|------------------------------|
|------------------------------|
|------------------------------|    4x
|-77777------------------------|
|-------777-99999-555----------|

Verse II
Guitar I
|------------------------------|
|------------------------------|
|------------------------------|        3x
|------------------------------|
|-77777------------------------|
|-------777-99999-555----------|

Guitar II (actually a piano sound, but can be played by guitar)
|----------------------------------|
|-9---9---7---7---9---9---10-9-7---|
|---9---9---9---9---9---9--------9-|    3x
|----------------------------------|
|----------------------------------|
|----------------------------------|

then
|------------------------------|
|------------------------------|
|------------------------------|
|--7777------------------------|
|--7777------------------------|
|--5555------------------------|

Chorus
|-------------------------------|
|-------------------------------|
|-99----------------------------|
|-99--99--1111--77--------------|
|-77--99--1111--77--------------|
|-----77--9-9---55--------------|

|-------------------------------|
|-------------------9---9^------|
|-99------------------9---------|
|-99--99--1111--7---------------|
|-77--99--1111--7---------------|
|-----77--9-9---5---------------|

|-------------------------------|
|-------------------------------|
|-99----------------------------|
|-99--99--1111--7-7-7-----------|
|-77--99--1111--7-7-7-----------|
|-----77--9-9---5-5-5-----------|

Verse I

Verse II

Chorus

Bridge
|----------------------------|
|----------------------------|
|-6--------------6-----------|
|-6-15x--7-------6-15x-------|
|-4------7-15x---4-----------|
|--------5-------------------|

|------------------------------|
|------------------9---9^------|
|-99-----------------9---------|
|-99--99--1111-----------------|
|-77--99--1111-----------------|
|-----77--9-9------------------|

then
|-------------------------------|
|-------------------9---9^------|
|-99------------------9---------|
|-99--99--1111--7---------------|
|-77--99--1111--7---------------|
|-----77--9-9---5---------------|

|-------------------------------|
|-------------------------------|
|-99----------------------------|
|-99--99--1111--7-7-7-----------|
|-77--99--1111--7-7-7-----------|
|-----77--9-9---5-5-5-----------|


Last Chorus
Guitar I
|-------------------------------|
|-------------------------------|
|-9999--------------------------|
|-9999-9999-11111111-7777-------|
|-7777-9999-11111111-7777-------|
|------7777-9-9-9-9--5555-------|

Guitar II
|----------------------------------|
|-9---9---7---7---9---9---10-9-7---|
|---9---9---9---9---9---9--------9-|    
|----------------------------------|
|----------------------------------|
|----------------------------------|


Guitar I
|-------------------------------|
|-------------------------------|
|-9999--------------------------|
|-9999-9999-11111111-7777-------|
|-7777-9999-11111111-7777-------|
|------7777-9-9-9-9--5555-------|

Guitar II
|----------------------------------|
|-9---9---7---7---9---9---10-9-7---|
|---9---9---9---9---9---9--------9-|    
|----------------------------------|
|----------------------------------|
|----------------------------------|


Guitar I
|--------------------------------|
|--------------------------------|
|-9999---------------------------|
|-9999-9999-11111111-7777-7------|
|-7777-9999-11111111-7777-7------|
|------7777-9-9-9-9--5555-5------|

Guitar II
|----------------------------------|
|-9---9---7---7---9---9---10-9-7---|
|---9---9---9---9---9---9--------9-|    
|----------------------------------|
|----------------------------------|
|----------------------------------|


Last
|------------------------------|
|------------------------------|
|------------------------------|
|------------------------------| 
|-77777------------------------|
|-------777-99999-555----------|

|---------12-9-----------------|
|----9-12------12-9-7----------|
|--9------------------9~-------|
|------------------------------|
|------------------------------|
|------------------------------|

End

It's my first tab
If there are some mistakes or comments
thanks..
            
Submit corrections

comments powered by Disqus
↑ Back to top | The Click Five Tabs for Happy Birthday. Lyrics for acoustic guitar and electric guitar. 1 Tablatures and chords are parodies/interpretations of the original songs. You may use it for private study, scholarship, research or language learning purposes only