» » »

The Click Five, Jenny Tabs (ver.2)

Artists:  A B C D E F G H I J K L M N O P Q R S T U V W X Y Z # 

Jenny Tabs (ver.2)

The Click Five Tabs
 Rating:
3.4/5 (10 votes)
Jenny lessons Tabs too difficult? Try these video lessons and learn fast
                Jenny by the click five...
D talaga Tama.. accurate lang..

Hi Ms. Kristeen jean Babano.....ingat ka lage!


Intro:

Guitar 1:
e|------------------------------------------------------------------|
B|------------------------------------------------------------------|
G|--444~---666---555h6---666—-555h6--666--555h6--666—-555h6-666-----|
D|--444~---666---666-----666--666----666--666----666--666---666-----|
A|--222~---444---444-----444--444----444--444----444--444---444-----|
E|------------------------------------------------------------------|

Guitar 2:
e|--------------------------------------|
B|--2—4\2-----2s4--2-----2s4—2---444----|
G|---------2----------2-----------------|
D|--------------------------------------|    ( For The B chord )
A|--------------------------------------|
E|--------------------------------------|

e|---------------------------------------|
B|--666--55—5\3--333—-3/5—5h6------------|
G|---------------------------------------|
D|---------------------------------------|2x ( For The C# chord )
A|---------------------------------------|
E|---------------------------------------|

Verse:

e|-------------------------|
B|-------------------------|
G|-------------------------|
D|---666666~---------------|( C# powerchord is used trough out the Verse ) 
A|---444444~---------------|
E|-------------------------|

She calls me baby, then she won’t call me
Says she adores me, and then ignores me

e|-------------------------|
B|-------------------------|
G|---333~-----555~---------|
D|---444~-----666~---------|( G# is used in the end of the word PROBLEM! )
A|---444~-----666~---------|
E|---222~-----444~---------|

JeNNnnnNy… what’s the problem?


e|-------------------------|
B|-------------------------|
G|-------------------------|
D|---666666~---------------|( C# powerchord ) 
A|---444444~---------------|
E|-------------------------|

She keeps her distance, and sits on fences
Looks up resistance and build defenses

e|-------------------------|
B|-------------------------|
G|---333~-----555~---------|
D|---444~-----666~---------|( G# is used in the end of the word PROBLEM! )
A|---444~-----666~---------|
E|---222~-----444~---------|

JeNNnnnNy… what’s the problem?

Refrain:

e|-------------------------------|
B|-------------------------------|
G|-------------------------------|
D|---888~--666---888~--999--6----|
A|---888~--666---888~--999--6----|
E|---666~--444---666~--777--4----|

You leave me hanging on the line.
Every time you change your mind.

Chorus:

e|-----------------------------------------------------------------|
B|-----------------------------------------------------------------|
G|---333~---555—-66~--333--555-------6-----------------------------|
D|---444~---666—-66~--444--666—-333--6-6—4--4s6--333—-444--666-----|
A|---444~---666—-44~--444--666--333--4-6—4--4s6--333—-444--666-----|
E|---222~---444-------222--444--111----4—2--2s4--111—-222--444-----|

                   F#    G#                C#
First you say you won’t, then you say you will.
                   F#    G#                Fm
You keep me hanging on, and were not moving on
   C# - G#   F#     G#          C#                  
Im standing still jenny, you’ve got me on my knees
F#              G#      F#
JeNNnnNy... iTs killing me.

Verse 2:

e|-------------------------|
B|-------------------------|
G|-------------------------|
D|---666666~---------------|( C# powerchord  ) 
A|---444444~---------------|
E|-------------------------|

She needs her own space, she's playing mind games
Ends up at my place, saying that shes change.

e|-------------------------|
B|-------------------------|
G|---333~-----555~---------|
D|---444~-----666~---------|( G# is used in the end of the word PROBLEM! )
A|---444~-----666~---------|
E|---222~-----444~---------|

JeNNnnnNy… what’s the problem?

Refrain 2:

e|-------------------------------|
B|-------------------------------|
G|-------------------------------|
D|---888~--666---888~--999--6----|
A|---888~--666---888~--999--6----|
E|---666~--444---666~--777--4----|

I'm trying to read between the lines.
Got me going out of my mind

Chorus:

e|-----------------------------------------------------------------|
B|-----------------------------------------------------------------|
G|---333~---555—-66~--333--555-------6-----------------------------|
D|---444~---666—-66~--444--666—-333--6-6—4--4s6--333—-444--666-----|
A|---444~---666—-44~--444--666--333--4-6—4--4s6--333—-444--666-----|
E|---222~---444-------222--444--111----4—2--2s4--111—-222--444-----|

                   F#    G#                C#
First you say you won’t, then you say you will.
                   F#    G#                Fm
You keep me hanging on, and were not moving on
   C# - G#   F#     G#          C#                  
Im standing still jenny, you’ve got me on my knees
F#              G#      F#
JeNNnnNy... iTs killing me.
G#          F#
Its killing me..
G#          F#
Its killing me..
 G#
JeNnnNy...

(RepeaT chorus 2 moRe times)..

G#          F#
iTs killing me..
G#          F#
its killing me..
  C#
…JENNY…. (END)

To D sPecIaL dT i cAre D mosT....
            
Submit corrections

comments powered by Disqus
↑ Back to top | The Click Five Tabs for Jenny. Lyrics for acoustic guitar and electric guitar. Tablatures and chords are parodies/interpretations of the original songs. You may use it for private study, scholarship, research or language learning purposes only