» » »

The Airborne Toxic Event, This Is Nowhere Tabs (ver.1)

Artists:  A B C D E F G H I J K L M N O P Q R S T U V W X Y Z # 

This Is Nowhere Tabs (ver.1)

The Airborne Toxic Event Tabs
 Rating:
4.6/5 (9 votes)
This Is Nowhere lessons Tabs too difficult? Try these video lessons and learn fast
1
                
                         "This Is Nowhere"
                                by
                      The Airborne Toxic Event

NOTE: The chords might not be right. DON'T HATE!

(INTRO)
Guitar 1
e|------------------------------------|
B|------------------------------------|
G|------------------------------------|
D|------------------------------------|
A|----------3-3-3-3-------------------|
E|--3-3-3-3---------0-0-0-0-0-0-0-0---|

Guitar 2
e|-------------------------------------------------|
B|-------------------------------------------------|
G|-------------------------------------------------|
D|----------1-0-------9-9-9-9-9-9-9-9-9-9-9-9-9----|
A|------3-2-----3-2/7------------------------------|
E|--3-0--------------------------------------------|

e|-------------------------------------------------|
B|-------------------------------------------------|
G|-------------------------------------------------|
D|----------1-0-------9/2-2-2-2-2-2-2-2-2-2-2-2----|
A|------3-2-----3-2/7------------------------------|
E|--3-0--------------------------------------------|

Guitar 1
e|-------------------------------------------------------------------|
B|-------------------------------------------------------------------|
G|-------------------------------------------------------------------|
D|----------------------------------9-9-x-7-9-9-x-7-9-9-x-9-9-9-9----|
A|--5-5-x-5-5-5-x-5-5-5-x-5-5-5-x-x-7-7-x-5-7-7-x-5-7-7-x-7-7-7-7----|
E|--3-3-x-3-3-3-x-3-3-3-x-3-3-3-x-x----------------------------------|

Guitar 2
e|------10-10-----7-7-----10-10-----77-------------|
B|------------8-8---------------8-8----------------|
G|--7-7---------------7-7--------------------------|
D|-------------------------------------------------|
A|-------------------------------------------------|
E|-------------------------------------------------|  (This riff goes on
                                                      during the 1st
e|------10-10-----7-7-----10-10-----77-------------|  verse, and the
B|------------8-8---------------8-8----------------|  choruses!!!)
G|--9-9---------------9-9--------------------------|
D|-------------------------------------------------|
A|-------------------------------------------------|
E|-------------------------------------------------|

(Verse 1)
"We all sit on the curb and we stare at the rain in our boots..."

Guitar 2
e|------10-10-----7-7-----10-10-----77-------------|
B|------------8-8---------------8-8----------------|
G|--7-7---------------7-7--------------------------|
D|-------------------------------------------------|
A|-------------------------------------------------|
E|-------------------------------------------------|

e|------10-10-----7-7-----10-10-----77-------------|
B|------------8-8---------------8-8----------------|
G|--9-9---------------9-9--------------------------|
D|-------------------------------------------------|
A|-------------------------------------------------|
E|-------------------------------------------------|


"When I don't even know if he's alive..."
Guitar 1
e|-------------------------------------------------------|
B|-------------------------------------------------------|
G|-------------------------------------------------------|
D|----------5-------4-------------5------4--444444444----|
A|--5-------3-------2------5------3------2--222222222----|
E|--3----------------------3-----------------------------|

Guitar 2
e|---------------|
B|---------------|
G|--5b(7)-5--4---|
D|---------------|
A|---------------|
E|---------------|

(Chorus 1)
Guitar 1
e|-------------------------------------------------------------------|
B|-------------------------------------------------------------------|
G|-------------------------------------------------------------------|
D|----------------------------------9-9-x-7-9-9-x-7-9-9-x-9-9-9-9----|
A|--5-5-x-5-5-5-x-5-5-5-x-5-5-5-x-x-7-7-x-5-7-7-x-5-7-7-x-7-7-7-7----|
E|--3-3-x-3-3-3-x-3-3-3-x-3-3-3-x-x----------------------------------|

Guitar 2
e|------10-10-----7-7-----10-10-----77-------------|
B|------------8-8---------------8-8----------------|
G|--7-7---------------7-7--------------------------|
D|-------------------------------------------------|
A|-------------------------------------------------|
E|-------------------------------------------------|

e|------10-10-----7-7-----10-10-----77-------------|
B|------------8-8---------------8-8----------------|
G|--9-9---------------9-9--------------------------|
D|-------------------------------------------------|
A|-------------------------------------------------|
E|-------------------------------------------------|

(Verse 2)
"And my closet's filled with all these endless accoutrements..."
Guitar 1
e|-------------------------------------------------------------------|
B|-------------------------------------------------------------------|
G|-------------------------------------------------------------------|
D|----------------------------------9-9-x-9-9-9-x-9-9-9-x-9-9-9-9----|
A|--5-5-x-5-5-5-x-5-5-5-x-5-5-5-x-x-7-7-x-7-7-7-x-7-7-7-x-7-7-7-7----|
E|--3-3-x-3-3-3-x-3-3-3-x-3-3-3-x-x----------------------------------|

Guitar 2
e|-----------------------------------------------------|
B|--8-8-----8--------8-8------10-----------------------|
G|-------------9------------------9-------9-9-----7-9--|
D|-----------------------------------------------------|
A|-----------------------------------------------------|
E|-----------------------------------------------------|

"When everything I know was just a lie..."
Guitar 1
e|-------------------------------------------------------|
B|-------------------------------------------------------|
G|-------------------------------------------------------|
D|----------5-------4-------------5------4--444444444----|
A|--5-------3-------2------5------3------2--222222222----|
E|--3----------------------3-----------------------------|

Guitar 2
e|---------------|
B|---------------|
G|--5b(7)-5--4---|
D|---------------|
A|---------------|
E|---------------|

(Chorus 2)
Guitar 1
e|-------------------------------------------------------------------|
B|-------------------------------------------------------------------|
G|-------------------------------------------------------------------|
D|----------------------------------9-9-x-7-9-9-x-7-9-9-x-9-9-9-9----|
A|--5-5-x-5-5-5-x-5-5-5-x-5-5-5-x-x-7-7-x-5-7-7-x-5-7-7-x-7-7-7-7----|
E|--3-3-x-3-3-3-x-3-3-3-x-3-3-3-x-x----------------------------------|

Guitar 2
e|------10-10-----7-7-----10-10-----77-------------|
B|------------8-8---------------8-8----------------|
G|--7-7---------------7-7--------------------------|
D|-------------------------------------------------|
A|-------------------------------------------------|
E|-------------------------------------------------|

e|------10-10-----7-7-----10-10-----77-------------|
B|------------8-8---------------8-8----------------|
G|--9-9---------------9-9--------------------------|
D|-------------------------------------------------|
A|-------------------------------------------------|
E|-------------------------------------------------|

(BRIDGE)
Guitar 1
e|------------------------------------|
B|------------------------------------|
G|------------------------------------|
D|------------------------------------|
A|----------3-3-3-3-------------------|
E|--3-3-3-3---------0-0-0-0-0-0-0-0---|

Guitar 2
e|-------------------------------------------------|
B|-------------------------------------------------|
G|-------------------------------------------------|
D|----------1-0-------9-9-9-9-9-9-9-9-9-9-9-9-9----|
A|------3-2-----3-2/7------------------------------|
E|--3-0--------------------------------------------|

e|-------------------------------------------------|
B|-------------------------------------------------|
G|-------------------------------------------------|
D|----------1-0-------9/2-2-2-2-2-2-2-2-2-2-2-2----|
A|------3-2-----3-2/7------------------------------|
E|--3-0--------------------------------------------|

Guitar 1
e|-----------------|
B|-----------------|
G|-----------------|
D|--77x777x777777--|
A|--55x555x555555--|
E|-----------------|

"I got nothing to do but stare at these walls
And take some time to screw my head on right..."
Guitar 1
e|-------------------------------------------------------------------|
B|-------------------------------------------------------------------|
G|-------------------------------------------------------------------|
D|----------------------------------9-9-x-9-9-9-x-9-9-9-x-9-9-9-9----|
A|--5-5-x-5-5-5-x-5-5-5-x-5-5-5-x-x-7-7-x-7-7-7-x-7-7-7-x-7-7-7-7----|
E|--3-3-x-3-3-3-x-3-3-3-x-3-3-3-x-x----------------------------------|

Guitar 2
e|--10-10-10-10-10-10-10-10-12-12-12-15-15-15-15-15---|
B|----------------------------------------------------|
G|----------------------------------------------------|
D|----------------------------------------------------|
A|----------------------------------------------------|
E|----------------------------------------------------|

e|--10-10-10-10-10-10-10-10-12-12-12-15-15-15-15-15-17-17-17-17----|
B|-----------------------------------------------------------------|
G|-----------------------------------------------------------------|
D|-----------------------------------------------------------------|
A|-----------------------------------------------------------------|
E|-----------------------------------------------------------------|

e|--10-10-10-10-10-10-10-10-12-12-12-15-15-15-15-15---|
B|----------------------------------------------------|
G|----------------------------------------------------|
D|----------------------------------------------------|
A|----------------------------------------------------|
E|----------------------------------------------------|

Guitar 1
e|-----------------------------------------------|
B|-----------------------------------------------|
G|-----------------------------------------------|
D|--------5555544444------555554444444444--------|
A|--55555-3333322222--5555333332222222222--------|
E|--33333--------------3333----------------------|

Guitar 2
e|-------------------------------------------------|
B|-------------------------------------------------|
G|-------------------------------------------------|
D|----------1-0-------9-9-9-9-9-9-9-9-9-9-9-9-9----|
A|------3-2-----3-2/7------------------------------|
E|--3-0--------------------------------------------|

e|-------------------------------------------------|
B|-------------------------------------------------|
G|-------------------------------------------------|
D|----------1-0-------9/2-2-2-2-2-2-2-2-2-2-2-2----|
A|------3-2-----3-2/7------------------------------|
E|--3-0--------------------------------------------|

Guitar 1
e|---------------------|
B|-88x888x888x888------|
G|-77x777x777x777------|
D|-55x555x555x555------|
A|-----------------5---|
E|-----------------3---|
            
Submit corrections

comments powered by Disqus
↑ Back to top | The Airborne Toxic Event Tabs for This Is Nowhere. Lyrics for acoustic guitar and electric guitar. 1 Tablatures and chords are parodies/interpretations of the original songs. You may use it for private study, scholarship, research or language learning purposes only