» » »

This Is Nowhere Tabs (ver.2)

Artists:  A B C D E F G H I J K L M N O P Q R S T U V W X Y Z # 

This Is Nowhere Tabs (ver.2)

The Airborne Toxic Event
Rating:
0/5 (0 votes)

Tabs too difficult? Try these video lessons and learn fast.
                (Intro)
This Is Nowhere
The Airborne toxic Event
The Airborne Toxic Event

Intro
E|-------------------------------------------------------|
B|-------------------------------------------------------|
G|-------------------------------------------------------|
D|-------------------999999999999------------------------|
A|-----3-2-6-5-------------------------------------------|
E|-3-0---------8-7---------------------------------------|


E|-------------------------------------------------------|
B|-------------------------------------------------------|
G|-------------------------------------------------------|
D|------------------9------------------------------------|
A|-----3-2-6-5----------7777777777-----------------------|
E|-3-0---------8-7---------------------------------------|


Verse
E|-------------------------------------------------------|
B|------15------1212-------------15------1212------------|
G|---------1212---------------------1212-----------------|
D|-1212---------------------1212-------------------------|
A|-------------------------------------------------------|
E|-------------------------------------------------------|


E|-------------------------------------------------------|
B|------15------1212---------------15------1212----------|
G|---------1212-----------------------1212---------------|
D|-1414-----------------------1414-----------------------|
A|-------------------------------------------------------|
E|-------------------------------------------------------|


Solo
E|------------------------------------1515151515151515151515151515--------|
B|-1515151515151515151515151515-1717--------------------------------------|
G|------------------------------------------------------------------------|
D|------------------------------------------------------------------------|
A|------------------------------------------------------------------------|
E|------------------------------------------------------------------------|


E|------------------------------------151515151515151515151515-17171717---|
B|-1515151515151515151515151515-1717--------------------------------------|
G|------------------------------------------------------------------------|
D|------------------------------------------------------------------------|
A|------------------------------------------------------------------------|
E|------------------------------------------------------------------------|


E|------------------------------------1515151515151515151515151515--------|
B|-1515151515151515151515151515-1717--------------------------------------|
G|------------------------------------------------------------------------|
D|------------------------------------------------------------------------|
A|------------------------------------------------------------------------|
E|------------------------------------------------------------------------|


E|-------------------------------------------------------|
B|-------------------------------------------------------|
G|-------------------------------------------------------|
D|-------------------999999999999------------------------|
A|-----3-2-6-5-------------------------------------------|
E|-3-0---------8-7---------------------------------------|


E|---------------------------|---------------------------|
B|---------------------------|---------------------------|
G|---------------------------|-44-444-444444-------------|
D|------------------9--------|-55-555-555555-------------|
A|-----3-2-6-5---------------|-55-555-555555-------------|
E|-3-0---------8-7-----------|-33-333-333333-------------|
Let the last chord ring and that's it.

Chords

[Verse]
E|-3-0----------------------------------------------------|
B|-3-0----------------------------------------------------|
G|-4-0----------------------------------------------------|
D|-5-2----------------------------------------------------|
A|-5-2----------------------------------------------------|
E|-3-0----------------------------------------------------|
[Chorus]
E|-0-3-3--------------------------------------------------|
B|-1-4-3--------------------------------------------------|
G|-0-5-4--------------------------------------------------|
D|-2-5-5--------------------------------------------------|
A|-3-3-5--------------------------------------------------|
E|-0-3-3--------------------------------------------------|
            
Tabs too difficult? Try these video lessons and learn fast.




comments powered by Disqus
↑ Back to top | Tablatures and chords are parodies/interpretations of the original songs. You may use it for private study, scholarship, research or language learning purposes only