>
 >
Sometime Around Midnight

Sometime Around Midnight Guitar Tabs

The Airborne Toxic Event - Sometime Around Midnight chords, tabs, tablatures, lyrics

Guitar lessons | Add/correct | Request | Top 50 tabs Artists:  A B C D E F G H I J K L M N O P Q R S T U V W X Y Z 0-9

Sometime Around Midnight Guitar Tabs – The Airborne Toxic Event

CD, Sheet music, Poster

Do you like Sometime Around Midnight? Share with your friends now
Bass TabsChordsChords v2Chords v3Chords v4TabsUkulele
-------------------------------------------------------------------------------
-------------------------------------------------------------------------------
Great song and just for fun I put my own little tab of the violin in the beginning cuz i 
bored. I hope you like it, it's not 100% correct but watever.

Tuning:Standard EADGBe
Capo on the 8th fret
all according to capo
INTRO
e|----333333-----------------------------------------------------------------|
B|(Or 888888)555-333-111-00010-----------------------------------------------|
G|---------------------------------------------------------------------------|x3
D|---------------------------------------------------------------------------|
A|---------------------------------------------------------------------------|
E|---------------------------------------------------------------------------|

Part after intro
(not so sure but it's for the 2nd guitar, there's a certain rythem)
e|---------------------------------------------------------------------------|
B|---------------------------------------------------------------------------|
G|--0-0-0-0-0-0-0-0-0-0-0-0-0-0-0-0-0-0-0-0-0-0-0-0-0-0-0-0-0-0-0-0----------|
D|---------------------------------------------------------------------------|
A|---------------------------------------------------------------------------|
E|---------------------------------------------------------------------------|

2nd Intro
e|---------------------------------------------------------------------------|
B|---------------------------------------------------------------------------|
G|---------------------------------------------------------------------------|
D|--0-0-0-0-0-0-0-0-0-0-0-0-0-0-0---0-0-0-0-0-0-0-0-0-0-0-0-0-0-0------------|
A|--2-2-2-2-3-3-3-2-2-2-2-0-0-0-0---2-2-2-2-3-3-3-2-2-2-2-0-0-0-0------------|
E|--3-3-3-3-3-3-3-3-3-3-3-3-3-3-3---3-3-3-3-3-3-3-3-3-3-3-3-3-3-3------------|

e|--------------0-0-----------------0-0--------------------------------------|
B|--------------0-0-----------------1-0--------------------------------------|
G|--0-0-0-0-0-0-0-0-----0-0-0-0-0-0-0-0--------------------------------------|
D|--2-2-2-2-2-2-2-2-----2-2-2-2-2-2-2-0----0-0-0-0-0-0-0-0-0-0-0-0-0-0-0-----|
A|--2-2-2-2-2-2-2-2-----3-3-3-3-3-3-3-0----2-2-2-2-3-3-3-2-2-2-2-0-0-0-0-----|
E|--0-0-0-0-0-0-0-0-----0-0-0-0-0-0-0-0----3-3-3-3-3-3-3-3-3-3-3-3-3-3-3-----|

verses
e|---------------------------------------------------------------------------|
B|---------------------------------------------------------------------------|
G|---------------------------------------------------------------------------|
D|--0-0-0-0-0-0-0-0-0-0-0-0-0-0-0---0-0-0-0-0-0-0-0-0-0-0-0-0-0-0------------|
A|--2-2-2-2-3-3-3-2-2-2-2-0-0-0-0---2-2-2-2-3-3-3-2-2-2-2-0-0-0-0------------|
E|--3-3-3-3-3-3-3-3-3-3-3-3-3-3-3---3-3-3-3-3-3-3-3-3-3-3-3-3-3-3------------|

e|--------------0-0-----------------0-0--------------------------------------|
B|--------------0-0-----------------1-0--------------------------------------|
G|--0-0-0-0-0-0-0-0-----0-0-0-0-0-0-0-0--------------------------------------|
D|--2-2-2-2-2-2-2-2-----2-2-2-2-2-2-2-0----0-0-0-0-0-0-0-0-0-0-0-0-0-0-0-----|
A|--2-2-2-2-2-2-2-2-----3-3-3-3-3-3-3-0----2-2-2-2-3-3-3-2-2-2-2-0-0-0-0-----|
E|--0-0-0-0-0-0-0-0-----0-0-0-0-0-0-0-0----3-3-3-3-3-3-3-3-3-3-3-3-3-3-3-----|

e|---------------------------------------------------------------------------|
B|---------------------------------------------------------------------------|
G|---------------------------------------------------------------------------|
D|--0-0-0-0-0-0-0-0-0-0-0-0-0-0-0---0-0-0-0-0-0-0-0-0-0-0-0-0-0-0------------|
A|--2-2-2-2-3-3-3-2-2-2-2-0-0-0-0---2-2-2-2-3-3-3-2-2-2-2-0-0-0-0------------|
E|--3-3-3-3-3-3-3-3-3-3-3-3-3-3-3---3-3-3-3-3-3-3-3-3-3-3-3-3-3-3------------|

e|--------------0-0-----------------0-0--------------------------------------|
B|--------------0-0-----------------1-0--------------------------------------|
G|--0-0-0-0-0-0-0-0-----0-0-0-0-0-0-0-0--------------------------------------|
D|--2-2-2-2-2-2-2-2-----2-2-2-2-2-2-2-0----0-0-0-0-0-0-0-0-0-0-0-0-0-0-0-----|
A|--2-2-2-2-2-2-2-2-----3-3-3-3-3-3-3-0----2-2-2-2-3-3-3-2-2-2-2-0-0-0-0-----|
E|--0-0-0-0-0-0-0-0-----0-0-0-0-0-0-0-0----3-3-3-3-3-3-3-3-3-3-3-3-3-3-3-----|

e|--------------0-0-----------------0-0--------------------------------------|
B|--------------0-0-----------------1-0--------------------------------------|
G|--0-0-0-0-0-0-0-0-----0-0-0-0-0-0-0-0--------------------------------------|
D|--2-2-2-2-2-2-2-2-----2-2-2-2-2-2-2-0----0-0-0-0-0-0-0-0-0-0-0-0-0-0-0-----|
A|--2-2-2-2-2-2-2-2-----3-3-3-3-3-3-3-0----2-2-2-2-3-3-3-2-2-2-2-0-0-0-0-----|
E|--0-0-0-0-0-0-0-0-----0-0-0-0-0-0-0-0----3-3-3-3-3-3-3-3-3-3-3-3-3-3-3-----|

e|--0~--------------------------------0~-------------------------------------|
B|--0~--------------------------------1~-------------------------------------|
G|--0~--------------------------------0~-------------------------------------|
D|--2~--------------------------------2~-------------------------------------|
A|--2~--------------------------------3~-------------------------------------|
E|--0~--------------------------------0~-------------------------------------|

2nd verse
e|---------------------------------------------------------------------------|
B|---------------------------------------------------------------------------|
G|---------------------------------------------------------------------------|
D|--0-0-0-0-0-0-0-0-0-0-0-0-0-0-0---0-0-0-0-0-0-0-0-0-0-0-0-0-0-0------------|
A|--2-2-2-2-3-3-3-2-2-2-2-0-0-0-0---2-2-2-2-3-3-3-2-2-2-2-0-0-0-0------------|
E|--3-3-3-3-3-3-3-3-3-3-3-3-3-3-3---3-3-3-3-3-3-3-3-3-3-3-3-3-3-3------------|

e|---------------------------------------------------------------------------|
B|---------------------------------------------------------------------------|
G|---------------------------------------------------------------------------|
D|--0-0-0-0-0-0-0-0-0-0-0-0-0-0-0---0-0-0-0-0-0-0-0-0-0-0-0-0-0-0------------|
A|--2-2-2-2-3-3-3-2-2-2-2-0-0-0-0---2-2-2-2-3-3-3-2-2-2-2-0-0-0-0------------|
E|--3-3-3-3-3-3-3-3-3-3-3-3-3-3-3---3-3-3-3-3-3-3-3-3-3-3-3-3-3-3------------|

e|--------------0-0-----------------0-0--------------------------------------|
B|--------------0-0-----------------1-0--------------------------------------|
G|--0-0-0-0-0-0-0-0-----0-0-0-0-0-0-0-0--------------------------------------|
D|--2-2-2-2-2-2-2-2-----2-2-2-2-2-2-2-0----0-0-0-0-0-0-0-0-0-0-0-0-0-0-0-----|
A|--2-2-2-2-2-2-2-2-----3-3-3-3-3-3-3-0----2-2-2-2-3-3-3-2-2-2-2-0-0-0-0-----|
E|--0-0-0-0-0-0-0-0-----0-0-0-0-0-0-0-0----3-3-3-3-3-3-3-3-3-3-3-3-3-3-3-----|

e|--------------0-0-----------------0-0--------------------------------------|
B|--------------0-0-----------------1-0--------------------------------------|
G|--0-0-0-0-0-0-0-0-----0-0-0-0-0-0-0-0--------------------------------------|
D|--2-2-2-2-2-2-2-2-----2-2-2-2-2-2-2-0----0-0-0-0-0-0-0-0-0-0-0-0-0-0-0-----|
A|--2-2-2-2-2-2-2-2-----3-3-3-3-3-3-3-0----2-2-2-2-3-3-3-2-2-2-2-0-0-0-0-----|
E|--0-0-0-0-0-0-0-0-----0-0-0-0-0-0-0-0----3-3-3-3-3-3-3-3-3-3-3-3-3-3-3-----|

e|--------------0-0-----------------0-0--------------------------------------|
B|--------------0-0-----------------1-0--------------------------------------|
G|--0-0-0-0-0-0-0-0-----0-0-0-0-0-0-0-0--------------------------------------|
D|--2-2-2-2-2-2-2-2-----2-2-2-2-2-2-2-0----0-0-0-0-0-0-0-0-0-0-0-0-0-0-0-----|
A|--2-2-2-2-2-2-2-2-----3-3-3-3-3-3-3-0----2-2-2-2-3-3-3-2-2-2-2-0-0-0-0-----|
E|--0-0-0-0-0-0-0-0-----0-0-0-0-0-0-0-0----3-3-3-3-3-3-3-3-3-3-3-3-3-3-3-----|

e|---------------------------------------------------------------------------|
B|---------------------------------------------------------------------------|
G|---------------------------------------------------------------------------|
D|--0-0-0-0-0-0-0-0-0-0-0-0-0-0-0--------------------------------------------|
A|--2-2-2-2-3-3-3-2-2-2-2-0-0-0-0--------------------------------------------|
E|--3-3-3-3-3-3-3-3-3-3-3-3-3-3-3--------------------------------------------|

3rd verse
e|---------------------------------------------------------------------------|
B|---------------------------------------------------------------------------|
G|---------------------------------------------------------------------------|
D|--0-0-0-0-0-0-0-0-0-0-0-0-0-0-0---0-0-0-0-0-0-0-0-0-0-0-0-0-0-0------------|
A|--2-2-2-2-3-3-3-2-2-2-2-0-0-0-0---2-2-2-2-3-3-3-2-2-2-2-0-0-0-0------------|
E|--3-3-3-3-3-3-3-3-3-3-3-3-3-3-3---3-3-3-3-3-3-3-3-3-3-3-3-3-3-3------------|

e|--------------0-0-----------------0-0--------------------------------------|
B|--------------0-0-----------------1-0--------------------------------------|
G|--0-0-0-0-0-0-0-0-----0-0-0-0-0-0-0-0--------------------------------------|
D|--2-2-2-2-2-2-2-2-----2-2-2-2-2-2-2-0----0-0-0-0-0-0-0-0-0-0-0-0-0-0-0-----|
A|--2-2-2-2-2-2-2-2-----3-3-3-3-3-3-3-0----2-2-2-2-3-3-3-2-2-2-2-0-0-0-0-----|
E|--0-0-0-0-0-0-0-0-----0-0-0-0-0-0-0-0----3-3-3-3-3-3-3-3-3-3-3-3-3-3-3-----|

e|--------------0-0-----------------0-0--------------------------------------|
B|--------------0-0-----------------1-0--------------------------------------|
G|--0-0-0-0-0-0-0-0-----0-0-0-0-0-0-0-0--------------------------------------|
D|--2-2-2-2-2-2-2-2-----2-2-2-2-2-2-2-0----0-0-0-0-0-0-0-0-0-0-0-0-0-0-0-----|
A|--2-2-2-2-2-2-2-2-----3-3-3-3-3-3-3-0----2-2-2-2-3-3-3-2-2-2-2-0-0-0-0-----|
E|--0-0-0-0-0-0-0-0-----0-0-0-0-0-0-0-0----3-3-3-3-3-3-3-3-3-3-3-3-3-3-3-----|

e|--------------0-0-----------------0-0--------------------------------------|
B|--------------0-0-----------------1-0--------------------------------------|
G|--0-0-0-0-0-0-0-0-----0-0-0-0-0-0-0-0--------------------------------------|
D|--2-2-2-2-2-2-2-2-----2-2-2-2-2-2-2-0----0-0-0-0-0-0-0-0-0-0-0-0-0-0-0-----|
A|--2-2-2-2-2-2-2-2-----3-3-3-3-3-3-3-0----2-2-2-2-3-3-3-2-2-2-2-0-0-0-0-----|
E|--0-0-0-0-0-0-0-0-----0-0-0-0-0-0-0-0----3-3-3-3-3-3-3-3-3-3-3-3-3-3-3-----|

e|---------------------------------------------------------------------------|
B|---------------------------------------------------------------------------|
G|---------------------------------------------------------------------------|
D|--0-0-0-0-0-0-0-0-0-0-0-0-0-0-0--------------------------------------------|
A|--2-2-2-2-3-3-3-2-2-2-2-0-0-0-0--------------------------------------------|
E|--3-3-3-3-3-3-3-3-3-3-3-3-3-3-3--------------------------------------------|

4th verse "and she leaves"
e|---------------------------------------------------------------------------|
B|---------------------------------------------------------------------------|
G|---------------------------------------------------------------------------|
D|--0-0-0-0-0-0-0-0-0-0-0-0-0-0-0---0-0-0-0-0-0-0-0-0-0-0-0-0-0-0------------|
A|--2-2-2-2-3-3-3-2-2-2-2-0-0-0-0---2-2-2-2-3-3-3-2-2-2-2-0-0-0-0------------|
E|--3-3-3-3-3-3-3-3-3-3-3-3-3-3-3---3-3-3-3-3-3-3-3-3-3-3-3-3-3-3------------|

e|--------------0-0-----------------0-0--------------------------------------|
B|--------------0-0-----------------1-0--------------------------------------|
G|--0-0-0-0-0-0-0-0-----0-0-0-0-0-0-0-0--------------------------------------|
D|--2-2-2-2-2-2-2-2-----2-2-2-2-2-2-2-0----0-0-0-0-0-0-0-0-0-0-0-0-0-0-0-----|
A|--2-2-2-2-2-2-2-2-----3-3-3-3-3-3-3-0----2-2-2-2-3-3-3-2-2-2-2-0-0-0-0-----|
E|--0-0-0-0-0-0-0-0-----0-0-0-0-0-0-0-0----3-3-3-3-3-3-3-3-3-3-3-3-3-3-3-----|

e|--------------0-0-----------------0-0--------------------------------------|
B|--------------0-0-----------------1-0--------------------------------------|
G|--0-0-0-0-0-0-0-0-----0-0-0-0-0-0-0-0--------------------------------------|
D|--2-2-2-2-2-2-2-2-----2-2-2-2-2-2-2-0----0-0-0-0-0-0-0-0-0-0-0-0-0-0-0-----|
A|--2-2-2-2-2-2-2-2-----3-3-3-3-3-3-3-0----2-2-2-2-3-3-3-2-2-2-2-0-0-0-0-----|
E|--0-0-0-0-0-0-0-0-----0-0-0-0-0-0-0-0----3-3-3-3-3-3-3-3-3-3-3-3-3-3-3-----|

"your friend says what is it..."
e|--0~--------------------------------0~-------------------------------------|
B|--0~--------------------------------1~-------------------------------------|
G|--0~--------------------------------0~-------------------------------------|
D|--2~--------------------------------2~-------------------------------------|
A|--2~--------------------------------3~-------------------------------------|
E|--0~--------------------------------0~-------------------------------------|

Bridge
e|---------------------------------------------------------------------------|
B|---------------------------------------------------------------------------|
G|---------------------------------------------------------------------------|
D|--0-0-0-0-0-0-0-0-0-0-0-0-0-0-0---0-0-0-0-0-0-0-0-0-0-0-0-0-0-0------------|
A|--2-2-2-2-3-3-3-2-2-2-2-0-0-0-0---2-2-2-2-3-3-3-2-2-2-2-0-0-0-0------------|
E|--3-3-3-3-3-3-3-3-3-3-3-3-3-3-3---3-3-3-3-3-3-3-3-3-3-3-3-3-3-3------------|

Dont know the rest of the bridge, the rest is complete guessing

e|---------------------------------------------------------------------------|
B|---------------------------------------------------------------------------|
G|---------------------------------------------------------------------------|
D|--0-0-0-0-0-0-0-0-0-0-0-0-0-0-0---0-0-0-0-0-0-0-0-0-0-0-0-0-0-0------------|
A|--2-2-2-2-3-3-3-2-2-2-2-0-0-0-0---2-2-2-2-3-3-3-2-2-2-2-0-0-0-0------------|
E|--3-3-3-3-3-3-3-3-3-3-3-3-3-3-3---3-3-3-3-3-3-3-3-3-3-3-3-3-3-3------------|

e|--------------0-0-----------------0-0--------------------------------------|
B|--------------0-0-----------------1-0--------------------------------------|
G|--0-0-0-0-0-0-0-0-----0-0-0-0-0-0-0-0--------------------------------------|
D|--2-2-2-2-2-2-2-2-----2-2-2-2-2-2-2-0----0-0-0-0-0-0-0-0-0-0-0-0-0-0-0-----|
A|--2-2-2-2-2-2-2-2-----3-3-3-3-3-3-3-0----2-2-2-2-3-3-3-2-2-2-2-0-0-0-0-----|
E|--0-0-0-0-0-0-0-0-----0-0-0-0-0-0-0-0----3-3-3-3-3-3-3-3-3-3-3-3-3-3-3-----|

e|--------------0-0-----------------0-0--------------------------------------|
B|--------------0-0-----------------1-0--------------------------------------|
G|--0-0-0-0-0-0-0-0-----0-0-0-0-0-0-0-0--------------------------------------|
D|--2-2-2-2-2-2-2-2-----2-2-2-2-2-2-2-0----0-0-0-0-0-0-0-0-0-0-0-0-0-0-0-----|
A|--2-2-2-2-2-2-2-2-----3-3-3-3-3-3-3-0----2-2-2-2-3-3-3-2-2-2-2-0-0-0-0-----|
E|--0-0-0-0-0-0-0-0-----0-0-0-0-0-0-0-0----3-3-3-3-3-3-3-3-3-3-3-3-3-3-3-----|

"You just have to see"
I dont know how this one goes

outro
e|----333333-----------------------------------------------------------------|
B|(Or 888888)555-333-111-00010-----------------------------------------------|
G|---------------------------------------------------------------------------|x3
D|---------------------------------------------------------------------------|
A|---------------------------------------------------------------------------|
E|---------------------------------------------------------------------------|

e|---------------------------------------------------------------------------|
B|---------------------------------------------------------------------------|
G|---------------------------------------------------------------------------|
D|--0-0-0-0-0-0-0-0-0-0-0-0-0-0-0---0-0-0-0-0-0-0-0-0-0-0-0-0-0-0------------|
A|--2-2-2-2-3-3-3-2-2-2-2-0-0-0-0---2-2-2-2-3-3-3-2-2-2-2-0-0-0-0------------|
E|--3-3-3-3-3-3-3-3-3-3-3-3-3-3-3---3-3-3-3-3-3-3-3-3-3-3-3-3-3-3------------|

e|--------------0-0-----------------0-0--------------------------------------|
B|--------------0-0-----------------1-0--------------------------------------|
G|--0-0-0-0-0-0-0-0-----0-0-0-0-0-0-0-0--------------------------------------|
D|--2-2-2-2-2-2-2-2-----2-2-2-2-2-2-2-0--------0-0------0-0-----0-0-----0----|
A|--2-2-2-2-2-2-2-2-----3-3-3-3-3-3-3-0-----------------------------2-2---0--|
E|--0-0-0-0-0-0-0-0-----0-0-0-0-0-0-0-0----3-3------3-3-----3-3--------------|

I guess that's it, I hope i did i good job. you guys are prolly mad cuz i dont have the 
sorry. this is the best i can do :]

| /  slide up
| \  slide down
| h  hammer-on
| p  pull-off
| ~  vibrato
| +  harmonic
| x  Mute note
===============================================================================





Comments


Popular The Airborne Toxic Event tabs & chords
All I Ever Wanted 1 Bass Tabs
Does This Mean You're Moving On? Chords
Innocence Chords
Something New Chords
Sometime Around Midnight 1 Chords
The Graveyard Near The House 4 Chords
Missy Tabs
This Is Nowhere Tabs
Parson Red Heads Ukulele
The Storm Ukulele


Song lyrics



↑ Back to top | Tablatures and chords are parodies/interpretations of the original songs. You may use it for private study, scholarship, research or language learning purposes only
© 2014 AZChords.com Contact us | Privacy policy | DMCA | Add/correct tabs | Request tabs | Top 50 tabs