>
 >
Sometime Around Midnight

Sometime Around Midnight Bass Tabs

The Airborne Toxic Event - Sometime Around Midnight chords, tabs, tablatures, lyrics

Guitar lessons | Add/correct | Request | Top 50 tabs Artists:  A B C D E F G H I J K L M N O P Q R S T U V W X Y Z 0-9

Sometime Around Midnight Bass Tabs – The Airborne Toxic Event

CD, Sheet music, Poster

Do you like Sometime Around Midnight? Share with your friends now
Bass TabsChordsChords v2Chords v3Chords v4TabsUkulele

This is my first tab so I do want some positive input 
on how I can make this tab better. Anyways this as close I can get 
it, enjoy! And also tell me how I did, plz.

Intro “…you haven’t seen her for awhile” 1:30 and 1:37
|----------------------|
|----------------------|
|--1/6-----------------|
|----------------------|

“…She’s laughing…” 1:44
|----------------------|
|----------------------|
|--6-------6~~-----6~--|
|---8~\4~-4---8~\4~----|hold the 8th fret for a bit then slide down to the 4th fret

“…So you could smell…” 2:00
|---------------------------|
|-------------6h8-----------|
|--6-------6~-----6~--6-----|
|---8~\4~-4-------------8-6-|

2:10 (do this twice)
|---------------------|
|---------------------|
|-66-66--66--6--------|
|--------------8-6-8--|

then straight to 2:19 (also do this twice)
|--------------------------------|
|--------------------------------|
|--33-33-------66-66-66--6-------|
|--------44-44-------------8-6-8-|

2:34 “…you feel hopeless…”
|-----------------------------|
|-----------------------------|
|--33-33-------6-6-6-6-6-6-6-pluck the sixes about 32x-|
|--------44-44----------------|

2:46 “…and she leaves…” (Do this twice)
|---------------------------------------|
|---------------------------------------|
|6-6-6-6-6-6-6-6---11-11-11-13-13-13-13-|

2:53 “…but she made sure…”
|---------------------------------|
|---------------------------------|
|-3-3-3-3-3-3-3-3-----------------|
|-----------------4-4-4-4-4-4-4-4-|




2:57 “…looks right at you and bolts…”
|---------------------------------------|
|---------------------------------------|
|-6-6-6-6-6-6-6-6---11-11-11-13-13-13-13|
|---------------------------------------|

3:01 “…as she walks out the door…”
|----------------------------------|
|----------------------------------|
|-3-3-3-3-3-3-3-3------------------|
|-----------------4-4-4-4-4-4-4-4--|

3:05 “…your stomach in ropes…”
|---------------------------------------|
|---------------------------------------|
|-6-6-6-6-6-6-6-6---11-11-11-13-13-13-13|
|---------------------------------------|

3:09 “…and when friends…”(pluck the strings lightly on this one)
|---------|
|---------|
|---3~----|
|------4~-|

(pre-bridge) 3:12 “…you look like you’ve seen a ghost…”
-here’s that pre-bridge thingy
|------------------------------------------|
|---8---8---8---8---8----8---8---8---8---8-|
|-66--66--66--66--66--666--66--66--66-66---|

(Bridge)3:20 (be sure to pluck the 3’s 16x)
|---------------------------------------------------------|
|---------------------------------------------------------|
|------------------1-1-1-1-1-1-1-1-3-3-3-3-3-3-3-3--------|
|--4-4-4-4-4-4-4-4----------------------------------------|

|----------------------------------|
|----------------------------------|
|------------------1-1-1-1-1-1-1-1-|
|--4-4-4-4-4-4-4-4-----------------|

Bridge 3:32

3:39 “…then you walk under the street lights…”
|-----------------------------------------|
|-----------------------------------------|
|--6-6-6-6-6-6-6-6---11-11-11-13-13-13-13-|
|-----------------------------------------|



3:46 “…and too drunk to notice…”
|----------------------------------|
|----------------------------------|
|--3-3-3-3-3-3-3-3-----------------|
|------------------4-4-4-4-4-4-4-4-|

3:50
|----------------------------------------|
|----------------------------------------|
|--6-6-6-6-6-6-6-6---11-11-11-13-13-13-13|
|----------------------------------------|

3:54 “…you don’t care what you look like…”
|----------------------------------|
|----------------------------------|
|--3-3-3-3-3-3-3-3-----------------|
|------------------4-4-4-4-4-4-4-4-|

3:58
|----------------------------------------|
|----------------------------------------|
|--6-6-6-6-6-6-6-6---11-11-11-13-13-13-13|
|----------------------------------------|

4:02 “…you just have to see her…”
|------------------|
|------------------|
|-3~---3-6~--3~----|
|---4~---------4~--|

Pre-Bridge 4:13

4:21 (outro)
|--------------------------------|
|--------------------------------|
|-3-3-3-3-3-3-3-3----------------|
|-----------------4-4-4-4-4-4-4-4|

Pre-Bridge 4:25
Outro 4:28
Pre-Bridge 4:32

4:36 Final Outro 
|---------|
|---------|
|--3~-----|
|-----4~--|
And Your Done





Comments


Popular The Airborne Toxic Event tabs & chords
All I Ever Wanted Bass Tabs
Changing Chords
It Doesn't Mean A Thing 1 Chords
Timeless Chords
True Love Chords
Welcome To Your Wedding Day Chords
Changing Intro 1 Tabs
All For A Woman Ukulele
The Kids Are Ready To Die 2 Ukulele
This Losing Ukulele


Song lyrics



↑ Back to top | Tablatures and chords are parodies/interpretations of the original songs. You may use it for private study, scholarship, research or language learning purposes only
© 2014 AZChords.com Contact us | Privacy policy | DMCA | Add/correct tabs | Request tabs | Top 50 tabs