» » »

All I Ever Wanted Bass tabs (ver.2)

Artists:  A B C D E F G H I J K L M N O P Q R S T U V W X Y Z # 

All I Ever Wanted Bass tabs (ver.2)

The Airborne Toxic Event
Rating:
4/5 (1 vote)

Hard to play? Try these video lessons and learn fast.
                Favorite song on the album. So profound and emotional and just amazing.
Anyway, Noah rarely ever seems to play on the first string
so I redid this tab relying on the A string.

Rate, Comment, Enjoy =)

Verse: 0:12-1:12
G------------|
D------------|
A--------0202|
E---3/7~~----|

Pre-Chorus: 1:12-1:24 (and I feel my heart...I think I might scream)
G----------------------------------|
D----------------------------------|
A---------444444440000000000000000-|
E-77777777-------------------------| x2

Chorus: (I could tell you...Forever, Forever)
G---------------------------------|
D---------------------------------|
A---------555555554444444411111111|
E-77777777------------------------|

G--------------------------------|
D--------------------------------|
A---------55555555-11-111-111-111|
E-77777777-----------------------|

Post-Chorus
G------------------------|
D------------------------|
A--4-24--5-45--0-01--0-01|
E------------------------|

Verse: little different from the first. (at night....in my grasp)
G-----------------------------|
D-----------------------------|
A-------0202-------0202--5-320|
E--3/7~~------3/7~~-----------|

G----------------------------------|
D----------------------------------|
A------0202-2-------0202-00-20-32-0|
E--7~~~--------3/7~~---------------|

Pre-Chorus: 1:12-1:24 (Your eyes so wide...Someone I don't know)
G----------------------------------|
D----------------------------------|
A---------444444440000000000000000-|
E-77777777-------------------------| x2

Chorus: (I could tell you...Forever, Forever)
G---------------------------------|
D---------------------------------|
A---------555555554444444411111111|
E-77777777------------------------|

G--------------------------------|
D--------------------------------|
A---------55555555-11-111-111-111|
E-77777777-----------------------|

Bridge: 2:31-3:10(10s not 1&0's) not too sure about the timing, but im positive about the notes.
G-----------------------------------------------|
D-----------------------------------------------|
A-----------------------------------------------|
E-10109-10-10-1010109-10-10-10999-9-9-9777-7-7-7| x3

G------------------------|
D------------------------|
A--4-24--5-45--0-01--0-01|
E------------------------| x2

G----------------------------------|
D----------------------------------|
A--44444444555555550000000000000000|
E----------------------------------| x2

Pre-Chorus: (All I could Think...Slay them)
G----------------------------------|
D----------------------------------|
A---------444444440000000000000000-|
E-77777777-------------------------| x2

Chorus: (I could tell you...Love is Defying)
G---------------------------------|
D---------------------------------|
A---------555555554444444411111111|
E-77777777------------------------|

G--------------------------------|
D--------------------------------|
A---------55555555-11-111-111-111|
E-77777777-----------------------|

G---------------------------------|
D---------------------------------|
A---------555555554444444411111111|
E-77777777------------------------|

G--------------------------------|
D--------------------------------|
A---------55555555-11-111-111-111|
E-77777777-----------------------|

G--------------------------------|
D--------------------------------|
A---------55555555-11-111-111-111|
E-77777777-----------------------|


Outro: (12's, 14's, 16s)
G------------------------------------------------------------------|
D------------------------------------------------------------------|
A-----------------777777779999999912121212121212121414141414141414-|
E-7777777799999999-------------------------------------------------|

G----------------------------------|
D----------------------------------|
A-16161616161616161616161616161616~|
E----------------------------------|
            
Hard to play? Try these video lessons and learn fast. | Correct




comments powered by Disqus
↑ Back to top | Tablatures and chords are parodies/interpretations of the original songs. You may use it for private study, scholarship, research or language learning purposes only