» » »

The Airborne Toxic Event, All I Ever Wanted Bass tabs (ver.1)

Artists:  A B C D E F G H I J K L M N O P Q R S T U V W X Y Z # 

All I Ever Wanted Bass tabs (ver.1)

The Airborne Toxic Event Tabs
 Rating:
3.6/5 (5 votes)
All I Ever Wanted lessons Tabs too difficult? Try these video lessons and learn fast
1
                
Guitar Intro 0:00-0:05
G|----------------|----------------|----------------|----------------|
D|-------R--------|-------E--------|-------S--------|--------T-------|
A|----------------|----------------|----------------|----------------|
E|----------------|----------------|----------------|----------------|
x1

Intro/Verse 1 0:05-1:10
G|----------------|----------------|----------------|----------------|
D|----------------|----------------|----------------|----------------|
A|----------------|----------------|----------------|----------------|
E|7/15~-----------|\---------7-----|5-7-5-7---------|----------------|
x12

Bridge 1:10-1:21
G|----------------|----------------|----------------|----------------|
D|----------------|----------------|----------------|----------------|
A|7-7-7-7-7-7-7-7-|5-5-5-5-5-5-5-5-|3-3-3-3-3-3-3-3-|3-3-3-3-3-3-3-3-|
E|----------------|----------------|----------------|----------------|
x2

Chorus 1:21-1:32
G|----------------|----------------|----------------|----------------|
D|5-5-5-5-5-5-5-5-|----------------|----------------|----------------|
A|----------------|5-5-5-5-5-5-5-5-|7-7-7-7-7-7-7-7-|3-3-3-3-3-3-3-3-|
E|----------------|----------------|----------------|----------------|
x1

G|----------------|----------------|----------------|----------------|
D|5-5-5-5-5-5-5-5-|----------------|--^-^-----^-^---|^-^-------------|
A|----------------|5-5-5-5-5-5-5-5-|7-7-7-7-7-7-7-7-|7-7-7-5-5-5-5-5-|
E|----------------|----------------|----------------|----------------|
x1

Post-Chorus 1:32-1:44
G|----------------|----------------|----------------|----------------|
D|5-5-5-5-5-5-5-5-|----------------|----------------|----------------|
A|----------------|7-7-7-7-7-7-7-7-|----------------|----------------|
E|----------------|----------------|7-7-7-7-7-7-7-7-|7-7-7-7-7-7-7-7-|
x1

G|----------------|----------------|----------------|----------------|
D|5-5-5-5-5-5-5-5-|----------------|----------------|----------------|
A|----------------|7-7-7-7-7-7-7-7-|----------------|----------------|
E|----------------|----------------|7-7-7-7-7-7-7-7-|7-7-7-7-5-5-5-5-|
x1

Verse 2 1:44-2:08
G|----------------|----------------|----------------|----------------|
D|----------------|----------------|----------------|----------------|
A|----------------|----------------|----------------|----------------|
E|7/15~-----------|\---------7-----|5-7-5-7---------|----------------|
x2

G|----------------|----------------|----------------|99-9------------|
D|----------------|----------------|----------------|--------7-------|
A|----------------|----------------|----------------|----------10--7-|
E|7/15~-----------|\---------7-----|5-7-5-7---------|----------------|
x1

G|----------------|----------------|----------------|----------------|
D|----------------|----------------|----------------|----------------|
A|10~-------------|\---------------|----------------|----------------|
E|----------------|\---------7-----|5-7-5-7---------|--7-------------|
x1

G|----------------|----------------|----------------|----------------|
D|----------------|----------------|----------------|----------------|
A|----------------|----------------|----------------|--------------5-|
E|7/15~-----------|\---------7-----|5-7-5-7---5---5-|7---5---5-7-5---|
x1

Bridge 2:08-2:19
G|----------------|----------------|----------------|----------------|
D|----------------|----------------|----------------|----------------|
A|7-7-7-7-7-7-7-7-|5-5-5-5-5-5-5-5-|3-3-3-3-3-3-3-3-|3-3-3-3-3-3-3-3-|
E|----------------|----------------|----------------|----------------|
x2


Chorus 2:19-2:31
G|----------------|----------------|----------------|----------------|
D|5-5-5-5-5-5-5-5-|----------------|----------------|----------------|
A|----------------|5-5-5-5-5-5-5-5-|7-7-7-7-7-7-7-7-|3-3-3-3-3-3-3-3-|
E|----------------|----------------|----------------|----------------|
x1

G|----------------|----------------|----------------|----------------|
D|5-5-5-5-5-5-5-5-|----------------|--^-^-----^-^---|^-^-------------|
A|----------------|5-5-5-5-5-5-5-5-|7-7-7-7-7-7-7-7-|7-7-7-5-5-5-5-5-|
E|----------------|----------------|----------------|----------------|
x1

Breakdown/Solo 2:31-3:12
G|----------------|----------------|----------------|----------------|
D|--9---9---9---9-|--10--9-----9---|--9---9-----9---|--7---7-----7---|
A|10--10------10--|10--10----10--10|7---7-----7---7\|5---5-----5---5-|
E|----------------|----------------|----------------|----------------|
x4

G|----------------|----------------|----------------|----------------|
D|--9---9---9---9-|--9---9---9---9-|--9---9---9---9-|--9---9---9---9-|
A|10--10--10--10--|10--10--10--10--|10--10--10--10--|10--10--10--10--|
E|----------------|----------------|----------------|----------------|
x1

G|----------------|----------------|----------------|----------------|
D|----9-------9---|----9-------9---|----9-------9---|----9--------9--|
A|1010101010101010|1010101010101010|1010101010101010|1010101010101010|
E|----------------|----------------|----------------|----------------|
x4
+NOTE+ This part is almost certainly not correct, but it sounds decent,
and the melody is too distorted to be able to hear the bass well.
Corrections here are quite appreciated.

Bridge 3:12-3:23
G|----------------|----------------|----------------|----------------|
D|----------------|----------------|----------------|----------------|
A|7-7-7-7-7-7-7-7-|5-5-5-5-5-5-5-5-|3-3-3-3-3-3-3-3-|3-3-3-3-3-3-3-3-|
E|----------------|----------------|----------------|----------------|
x2


Chorus 3:23-3:52
G|----------------|----------------|----------------|----------------|
D|5-5-5-5-5-5-5-5-|----------------|----------------|----------------|
A|----------------|5-5-5-5-5-5-5-5-|7-7-7-7-7-7-7-7-|3-3-3-3-3-3-3-3-|
E|----------------|----------------|----------------|----------------|

G|----------------|----------------|----------------|----------------|
D|5-5-5-5-5-5-5-5-|----------------|--^-^-----^-^---|^-^-------------|
A|----------------|5-5-5-5-5-5-5-5-|7-7-7-7-7-7-7-7-|7-7-7-5-5-5-5-5-|
E|----------------|----------------|----------------|----------------|

G|----------------|----------------|----------------|----------------|
D|5-5-5-5-5-5-5-5-|----------------|----------------|----------------|
A|----------------|5-5-5-5-5-5-5-5-|7-7-7-7-7-7-7-7-|3-3-3-3-3-3-3-3-|
E|----------------|----------------|----------------|----------------|
x3

Outro 3:52-4:17
G|----------------|----------------|
D|----------2-4-5-|--------2-5-----|
A|----2-3-5-------|----2-5---------|
E|3-5-------------|3-5-------------|

I honestly have no clue. So, here is what you can do if you have not been
playing for very long: the pentatonic major scale in the first measure
and in the second measure the major scale, both in the key of G. Just 
mess around with these notes, and you should be fine. Once again, corrections 
are appreciated. 

And that, folks, is all. Hope you enjoy this tab, and if you do, please be
sure to rate it!
            
Submit corrections

comments powered by Disqus
↑ Back to top | The Airborne Toxic Event Bass for All I Ever Wanted. Lyrics for acoustic guitar and electric guitar. 1 Tablatures and chords are parodies/interpretations of the original songs. You may use it for private study, scholarship, research or language learning purposes only