» » »

By Your Side Tabs (ver.6)

Artists:  A B C D E F G H I J K L M N O P Q R S T U V W X Y Z # 

By Your Side Tabs (ver.6)

Tenth Avenue North
Rating:
3/5 (1 vote)

Tabs too difficult? Try these video lessons and learn fast.
                (Intro)
Tenth Avenue North - "By Your Side"
Standard tuning

This is a simplified version of the intro, but it is still in the same key and sounds 
exactly the same as the original.
Please post any comments or corrections you may have :)

It's broken into 4 sections (or melodies), and you won't have to move your fingers until 
end of each section.

e|---------------------|--------------------||-------------------|------------------|
B|-----------0---------|----------0---------||------0---0---0----|-----0---0---0----|
G|--0-0----0---0----0--|-0-0----0---0----0--||----0---0---0---0--|---0---0---0---0--|
D|------12-------12----|-----12-------12----||--2----------------|-2----------------|
A|---------------------|--------------------||-------------------|------------------|
E|---------------------|--------------------||-------------------|------------------|

e|---------------------|--------------------||-------------------|------------------|
B|----------0----------|---------0----------||----------0--------|----------0-------|
G|----0---0---0---0----|---0---0---0---0----||---0-0-0-----0-0-0-|----0-0-0---0-0-0-|
D|------7-------7------|-----7-------7------||-------------------|------------------|
A|--5---------------5--|-5---------------5--||-3-----------------|--3---------------|
E|---------------------|--------------------||-------------------|------------------|
             ^  ^  ^                                                           REPEAT
      This measure is the hardest. just keep put your
   index finger on the 5 and your ring finger on the 7 and practice (:
            
Tabs too difficult? Try these video lessons and learn fast.




comments powered by Disqus
↑ Back to top | Tablatures and chords are parodies/interpretations of the original songs. You may use it for private study, scholarship, research or language learning purposes only