» » »

Love Is Here Bass tabs (ver.1)

Artists:  A B C D E F G H I J K L M N O P Q R S T U V W X Y Z # 

Love Is Here Bass tabs (ver.1)

Tenth Avenue North
Rating:
0/5 (0 votes)

Hard to play? Try these video lessons and learn fast.
                Ok so I play this song with a capo on the fourth fret...it sounds better that way.

Capo on 4


Intro:

G--------------------------------------------------------}
D--------------------------------------------------------}
A---------------------3~---------------------------------}
E----0~------3~------------------------------------------}


Verse 1

G--------------------------------------------------------}
D--------------------------------------------------------}
A---------------------3~---------------------------------}
E----0~------3~------------------------------------------}


Pre Chorus

G--------------------------------------------------------}
D--------------------------------------------------------}
A---5~--------------3~-----------------------------------}
E-----------0~-------------------------------------------}

Chorus

G--------------------------------------------------------}
D--------------------------------------------------------}
A------------333333------5555-3333-----------------------}
E-----333333---------0000--------------------------------}


Bridge

G--------------------------------------------------------}
D--------------------------------------------------------}
A---33333333-222222222-0000000000-555555555--------------}x2
E--------------------------------------------------------}


Rate, Comment. ML
            
Hard to play? Try these video lessons and learn fast. | Correct




comments powered by Disqus
↑ Back to top | Tablatures and chords are parodies/interpretations of the original songs. You may use it for private study, scholarship, research or language learning purposes only