>
 >
By Your Side 1

By Your Side 1 Guitar Tabs

Tenth Avenue North - By Your Side 1 chords, tabs, tablatures, lyrics

Guitar lessons | Add/correct | Request | Top 50 tabs Artists:  A B C D E F G H I J K L M N O P Q R S T U V W X Y Z 0-9

By Your Side 1 Guitar Tabs – Tenth Avenue North

CD, Sheet music, Poster

Do you like By Your Side 1? Share with your friends now
Bass TabsChordsChords v2Chords v3Chords v4Chords v5Chords v6Chords v7TabsTabs v2Tabs v3Ukulele

Tuning: Standard

Intro (play twice)

e|---------------------------------------------------------------------------|
B|-----------------0-----------------------------0---------------------------|
G|------0-------0-----0------0--------0-------0-----0------0-----------------|
D|----------12-----------12---------------12-----------12--------------------|
A|---9----------------------------9------------------------------------------|
E|---------------------------------------------------------------------------|

e|---------------------------------------------------------------------------|
B|---------------0-----------------------0-----------------------------------|
G|------0-----0-----0-----0-----0-----0-----0-----0--------------------------|
D|---------9-----------9-----------9-----------9-----------------------------|
A|---7-----------------------7-----------------------------------------------|
E|---------------------------------------------------------------------------|

e|---------------------------------------------------------------------------|
B|---------------0-----------------------0-----------------------------------|
G|------0-----0-----0-----0------0----0-----0-----0--------------------------|
D|---------7-----------7-----------7-----------7-----------------------------|
A|---5------------------------5----------------------------------------------|
E|---------------------------------------------------------------------------|

e|---------------------------------------------------------------------------|
B|---------------0-----------------------0-----------------------------------|
G|------0-----0-----0------0-----0----0-----0-----0--------------------------|
D|---------5-----------5-----------5-----------5-----------------------------|
A|---3------------------------3----------------------------------------------|
E|---------------------------------------------------------------------------|

Verse 1

            G
Why are you striving these days
            Em
Why are you trying to earn grace
            D
Why are you crying
                    C
Let me lift up your face
                  G
Just don't turn away

            G
Why are you looking for love
                  Em
Why are you still searching as if I'm not enough
                  D
To where will you go child
                       C
Tell me where will you run
                   G
To where will you run

Chorus

            Em
And I'll be by your side
    C
Wherever you fall
       G
In the dead of night
     D   
Whenever you call
    Em      
And please don't fight
      C                      G
These hands that are holding you
D                    G
My hands are holding you

Verse 2

Look at these hands and my side
They swallowed the grave on that night
When I drank the world's sin
So I could carry you in
And give you life
I want to give you life

(Chorus 2x)

Bridge

      D        Em
Cause I, I love you
      C        D  
I want you to know
     D        Em
That I, I love you
      C            D
I'll never let you go

(Chorus 2x) 





Comments


Popular Tenth Avenue North tabs & chords
Healing Begins 2 Chords
Shadows Chords
By Your Side Tabs
By Your Side Intro 2 Tabs
Oh My Dear Tabs
Oh My Dear Intro Tabs
Healing Begins 2 Ukulele
Hostage Of Peace Ukulele
Satisfy Ukulele
Worn Ukulele


Song lyrics



↑ Back to top | Tablatures and chords are parodies/interpretations of the original songs. You may use it for private study, scholarship, research or language learning purposes only
© 2014 AZChords.com Contact us | Privacy policy | DMCA | Add/correct tabs | Request tabs | Top 50 tabs