» » »

Tenth Avenue North, By Your Side Tabs (ver.2)

Artists:  A B C D E F G H I J K L M N O P Q R S T U V W X Y Z # 

By Your Side Tabs (ver.2)

Tenth Avenue North Tabs
Rating:
3/5 (2 votes)
By Your Side lessons Tabs too difficult? Try these video lessons and learn fast
                (Intro)
-------------------------------------------------------------------------------
                             BY YOUR SIDE - Tenth Avenue North
-------------------------------------------------------------------------------

                          ***************UPDATED*****************  


Tuning: normal (cd version), down a half step (live version)

This is just the intro, but the rest of the song (mainly the verses) is the same. 
Use this and the chord page someone else made and you'll have the song down!

Update: a minor change to the bass notes.  what you see now is correct :D 

    G                               Em
e|---------------------------------------------------------------------------|
B|----------0---------------0---------------0---------------0----------------|
G|----0-------0---0---0-------0---0---0-------0---0---0-------0---0----------|
D|------12------12------12------12------9-------9-------9-------9------------|
A|--10----10--------10----10--------7-----7---------7-----7------------------|
E|---------------------------------------------------------------------------|

    D                               C
e|---------------------------------------------------------------------------|
B|----------0---------------0---------------0---------------0----------------|
G|----0-------0---0---0-------0---0---0-------0---0---0-------0---0----------|
D|------7-------7-------7-------7-------5-------5-------5-------5------------|
A|--5-----5---------5-----5---------3-----3---------3-----3------------------|
E|---------------------------------------------------------------------------|

    G                     (Why are you striving...)
e|---------------------------------------------------------------------------|
B|----------0---------------0------------------------------------------------|
G|----0-------0---0---0-------0---0------------------------------------------|
D|------12------12------12------12-------------------------------------------|
A|--10----10--------10----10-------------------------------------------------|
E|---------------------------------------------------------------------------|


===============================================================================
            
Submit corrections

comments powered by Disqus
↑ Back to top | Tenth Avenue North Tabs for By Your Side. Lyrics for acoustic guitar and electric guitar. Tablatures and chords are parodies/interpretations of the original songs. You may use it for private study, scholarship, research or language learning purposes only